Sepultura - Slave New World Chords & Tabs

 

Slave New World Chords & Tabs

Sepultura Chords & Tabs

Version: 2 Type: Tab 0 ratings
1 star 2 stars 3 stars 4 stars 5 stars
comments

Slave New World Tab

   
Slave New World


e------------------------------------------------------------------------------------------------
B------------------------------------------------------------------------------------------------
G------------------------------------------------------------------------------------------------
D------------------------------------------------------------------------------------------------
A--9-9-9-9-9-9--11-11-11-11-11-11---12-12-12-12-14-14-14-14-14-14---12-12-12-12-12-12-11-11-11-11
E--7-7-7-7-7-7--9--9--9--9--9--9---10-10-10-10--12-12-12-12-12-12---10-10-10-10-10-10-9--9--9--9-

[ Tab from: http://www.guitartabs.cc/tabs/s/sepultura/slave_new_world_tab_ver_2.html ]
e------------------------------------------------------------------------------------------------
B------------------------------------------------------------------------------------------------
G------------------------------------------------------------------------------------------------
D--9-9-9-9-9-9--11-11-11-11-11-11---12-12-12-12-14-14-14-14-14-14---12-12-12-12-12-12-11-11-11-11
A--7-7-7-7-7-7--9--9--9--9--9--9---10-10-10-10--12-12-12-12-12-12---10-10-10-10-10-10-9--9--9--9-
E------------------------------------------------------------------------------------------------


e-------------------------------------------------------------
B-------------------------------------------------------------
G-------------------------------------------------------------       =  x3
D-9-9-9-9-9-14-14-14-14-12-12-11-12-14-14---------------------
A-7-7-7-7-7-12-12-12-12-10-10-9--10-12-12---------------------
E-------------------------------------------------------------

e-----------------------------------------
B-----------------------------------------
G-----------------------------------------
D-9-9-9-9-9-14-14-14-16-14-16\\\\\\\\\\\\\
A-7-7-7-7-7-12-12-12-14-12-14\\\\\\\\\\\\\\
E-----------------------------------------


Tabbed by Arnar (10. april 98 kl. 02:50 AM)
mail: arnar@snerpa.is
Comments