Sepultura - Rise Above Chords & Tabs

 

Rise Above Chords & Tabs

Sepultura Chords & Tabs

Version: 1 Type: Tab 0 ratings
1 star 2 stars 3 stars 4 stars 5 stars
comments

Rise Above Tab

Sepultura
Rise Above
rmwaters3000@hotmail.com

I LOVE THIS SONG! I couldn't find any good tabs for this song(as if I tried) so I tabbed it myself.
Could someone please e-mail me with the words for this song.
Tune down 2 and a half steps.

INTRO                            FILL
-----------------------------    ------------------
-----------------------------    ------------------
-777-666-555-444-------------    -3--5--7-/--------
-777-666-555-444-------------    -3--5--7-/--------
-555-444-333-222-------------    -1--3--5-/--------
-----------------------------    ------------------

VERSE              RISE ABOVE BIT
-------------      ------------------ 
-------------      ------------------
55555555-----      -44/66644/6-------
55555555-----      -44/66644/6-------
33333333-----      -22/44422/4-------
-------------      ------------------

CHORUS
----------------------------------      Hit the bits outside the 
----------------------------------      brackets and strum the bits
-7(77777)-6(66666)-5(55555)--44---      inside
-7(77777)-6(66666)-5(55555)--44---(x2)
-5(55555)-4(44444)-3(33333)--22---
----------------------------------
[ Tab from: http://www.guitartabs.cc/tabs/s/sepultura/rise_above_tab.html ]
SOLO
----------------------------------------------------------------
----------------------------------------------------------------
-17-19-17-19-17-19-17-19-17-19-17-19---13-13/15-15-15-13-13/15--
---------------------------------------------15-15-15-13-13/15--
----------------------------------------------------------------
----------------------------------------------------------------

----------------------------------------------------------------
----------------------------------------------------------------
------17-19-17-19-15-17-13-15---17-19-17-19-15-17-13-15-11-13-9-
----------------------------------------------------------------
----------------------------------------------------------------
----------------------------------------------------------------

-----------------------------
-----------------------------
11-7-9-5-7-3-5-1-0-----------
-----------------------------
-----------------------------
-----------------------------

VERSE 3 (slower than other verse) & LAST RISE ABOVE BIT
--------------------------------------
--------------------------------------
-55555555-----------44/6-5-\----------
-55555555-----------44/6-5-\----------
-33333333-----------22/4-3-\----------
--------------------------------------

Thats it. The solo is tough but you'll get it.
                fin
Comments