Sepultura - Refuse Resist Chords & Tabs

 

Refuse Resist Chords & Tabs

Sepultura Chords & Tabs

Version: 2 Type: Tab 0 ratings
1 star 2 stars 3 stars 4 stars 5 stars
comments

Refuse Resist Tab

   
this is right! play it like this!
D standard

Riff 1
-------------|
-------------|
-------------|
--2-2-2-2-2--|   x4
--2-2-2-2-2--|
--0-0-0-0-0--|

riff 2
-----------------          Lead  -66660-66660-660-|
-----------------                -----------------|
-----------------                -----------------|
-8888--8888--88--    x8          -----------------|
-8888--8888--88--                -----------------|
-66660-66660-660-                -----------------|
[ Tab from: http://www.guitartabs.cc/tabs/s/sepultura/refuse_resist_tab_ver_2.html ]
Riff 3
-----------------------------------------------------------|
-----------------------------------------------------------|
-----------------------------------------------------------|    x2
-----------------------------------------------------------|
8--11-11-14-14---8--11-11-14-14---8--11-11-14-14-2-2-2-2-2-|
6--9--9--12-12---6--9--9--12-12---6--9--9--12-12-0-0-0-0-0-|

Riff 4
------------------|
------------------|
------------------|
------------------|     x8
--2-2-222-2-3-5-6-|
--0-0-000-0-1-3-4-|

Riff 5
-------------------------------|
-------------------------------|
-------------------------------|
-7-6-6-7-----7-6-6-7-----------|    x2
-5/4-4-5-5-5-5/4-4-5-5-5-------|
---------3-3---------3-3-------|
Comments