Sepultura - Refuse Resist Chords & Tabs

 

Refuse Resist Chords & Tabs

Sepultura Chords & Tabs

Version: 1 Type: Tab 0 ratings
1 star 2 stars 3 stars 4 stars 5 stars
comments

Refuse Resist Tab

   
Artist: Sepultura
Song: Refuse/Resist
Tabbed by: Ratmer (Ratmer@gmx.at)

"Drop D" - Tuning (low to high: D A D G B E)

INTRO / OUTRO

E|-----------------------------------------------
B|-----------------------------------------------
G|-----------------------------------------------
D|--1-1-1-1--0---1-1-1-1--0----------------------
A|--1-1-1-1--0---1-1-1-1--0----------------------
D|--1-1-1-1--0---1-1-1-1--0----------------------


INTERLUDE

Guitar 1

E|--------------------------------Tritonus 4ever!
B|-----------------------------------------------
G|-----------------------------------------------
D|--6-6-6-6---0---6-6-6-6---0---6-6---0----------
A|--6-6-6-6---0---6-6-6-6---0---6-6---0----------
D|--6-6-6-6---0---6-6-6-6---0---6-6---0----------

Guitar 2
[ Tab from: http://www.guitartabs.cc/tabs/s/sepultura/refuse_resist_tab.html ]
E|-----------------------------------------------
B|-----------------------------------------------
G|--13-13-13-13----13-13-13-13----13-13----------
D|--------------12-------------12-------12-------
A|-----------------------------------------------
D|-----------------------------------------------



E|-----------------------------------------------
B|-----------------------------------------------
G|-----------------------------------------------
D|--6-6-6--9--12-12---6-6-6--9--12-12--0-0-0-----
A|--6-6-6--9--12-12---6-6-6--9--12-12--0-0-0-----
D|--6-6-6--9--12-12---6-6-6--9--12-12--0-0-0-----


VERSE

E|-----------------------------------------------
B|-----------------------------------------------
G|-----------------------------------------------
D|--0-0-0-0-0--1--2--3---------------------------
A|--0-0-0-0-0--1--2--3---------------------------
D|--0-0-0-0-0--1--2--3---------------------------


CHORUS

E|-----------------------------------------------
B|-----------------------------------------------
G|-----------------------------------------------
D|--8-8-8--4-4-4--0-0-0---6-6-6--4-4-4--0-0-0----
A|--8-8-8--4-4-4--0-0-0---6-6-6--4-4-4--0-0-0----
D|--8-8-8--4-4-4--0-0-0---6-6-6--4-4-4--0-0-0----


Order:

INTRO
INTERLUDE
VERSE
INTERLUDE
VERSE
CHORUS
WEIRD SOLO ;-) with much wah!
INTERLUDE
VERSE
CHORUS
INTERLUDE
OUTRO

Well, that's it, have fun, sucka!
Comments