Sepultura - Refuse Resist Chords & Tabs

 

Refuse Resist Chords & Tabs

Sepultura Chords & Tabs

Version: 1 Type: Bass Tab 0 ratings
1 star 2 stars 3 stars 4 stars 5 stars
comments

Refuse Resist Bass Tab

Refuse/Resist by Sepultura off of the album Chaos A.D.
        This bass tab was created by Dave Godfrey, 2003 
EM: i8ny87@hotmail.com
AIM: Yerfydogg
. = Palm mute     = slide
For some parts, listen to the song for the rhythm, since its hard to show the exact rhythm using tabs. This song is in standard tuning, the recording is in D standard but you will probably be playing it in E standard. 

Riff 1
g------------------
D-----------------    x4
A------------------
E-1-1-1-1-0-------                 
  . . . . 

Riff 2
g-----------------------------------------
D----------------------------------------   x8
A---------------------------------------
E-6-6-6-6-0--6-6-6-6-0--6-0-0------

Riff 3
g-----------------------------------------              x2
D----------------------------------------------
A-1--4-4--------1--4-4-----1--4-4--------------------
E--------0-0----------0-0---------0-0----0---0---0---0---0

Riff 4 (Verse Riff)
g-----------------------------------------
D------------------------------------------
A-----------------------------------------  x8
E-000-0----1--3-4------------------------

Riff 2
g-----------------------------------------
D----------------------------------------   x4
A---------------------------------------
E-6-6-6-6-0--6-6-6-6-0--6-0-0------

Riff 4 (Verse Riff)
g-----------------------------------------
D------------------------------------------
A-----------------------------------------  x8
E-0000----1--3-4------------------------
[ Tab from: http://www.guitartabs.cc/tabs/s/sepultura/refuse_resist_btab.html ]
Riff 5 (Chorus Riff)
g------------------------------------------
D----------------------------------  x2 (leave out the E’s on the second time)
A-----------------------------1-11-1---
E-8-88-8--444---0--0--0--------------444---0---0---0----



Riff 6(just rhythm guitar)
g---------------------------------
D-------------------------------- x2
A--------------------------------
E--------------------------------



Riff 7(solo riff part1)
g----------------------------------------------------------------------
D----------------------------------------------------------------------
A-----------------------------------------------------------------------
E-22222222222222222222222222222222222222222222222(around 30 times)

Riff 8 (solo riff part 2)
g---------------------------------
D--------------------------------
A--54-4----------54-4-54-4--      x4
E---------43-3--------------------

Riff 2
g-----------------------------------------
D----------------------------------------   x4
A---------------------------------------
E-6-6-6-6-0--6-6-6-6-0--6-0-0------


Riff 4 (Verse Riff)
g-----------------------------------------
D------------------------------------------
A-----------------------------------------   x8
E-000-0----1--3-4------------------------


Riff 5 (Chorus Riff)
g------------------------------------------
D------------------------------------ x2 (leave out the E’s on the second time)
A-----------------------------1-11-1------
E-8-88-8--444---0--0--0--------------444---0---0---0----

Riff 2
g-----------------------------------------
D----------------------------------------    x8
A---------------------------------------
E-6-6-6-6-0--6-6-6-6-0--6-0-0------

Riff 1
g------------------
D-----------------    x4
A------------------
E-1-1-1-1-0-------                 
  . . . .
Comments