Sepultura - Propaganda Chords & Tabs

 

Propaganda Chords & Tabs

Sepultura Chords & Tabs

Version: 1 Type: Bass Tab 0 ratings
1 star 2 stars 3 stars 4 stars 5 stars
comments

Propaganda Bass Tab

Propaganda Bass TabsRoots of Sepultura - www.treibsand.com/sepultura
Here's "Propaganda" from "Chaos", probably my favorite song. Make sure
you tune up to an E; it's different from most of the album which is D.
                        RUSS FARHA/ DALLAS,TX
E:--0-------3-2-3--0-0-0-0-0-0-0-0-0-0-0-0-0-0-(# ?)--3-2-3-0-0-0-0--
E:--0-0-0-0------3-2-0--------------|silence, then repeat through verse
E:--0-0-0-0-0-0-0-0-0-0-0-0-3-2-3-0-0-0-0-0-0-0-0-0-0-0-0-0-0-0-3-2-3-|
E:--0-6-0-3-0-3-6-6--0-6-0-3-0-3-6---3-2-3--000000000000000000000
chorus
E:--0-0-0-7h87-6-6--0-0-0-7h87-6-6--0-0-0-7h87-6-6--0-0-0-0-0-0-0-0-0-5-
E:--0-6-0-3-0-3-6-6--0-6-0-3-0-3-6--3-2-3- VERSE
repeat chorus again then, 
E:--5-0-0-0-0-0-0-8-7-7-6-6-5-0-0-0-0-0-0-3-0-0-2-0-0-3-0-|repeat
through guitar solo
E:--6----5-0----6----5-0----6----5-0----6----5-0--0-0-0-0 keep jammin
the E like you hear it then BASS SOLO (yeah!!) Jam the E
E:-0-0-0-0-0-0-0-0-0-0-0-0-0-0-0-0-0-0-0-0-0-0-0-0-0-0-0-0-0-0-0-0-0-0-0---0-0-0-0-0-0--
go to the end,
E:-6-0-0-0-0-0-0-0-0-0-0-0-0-0-0-0--5-0-0-0-0-0-0-0-0-0-0-0-0-0-0-0-
E:-6-0-0-0-0-0-0-0-0-0-0-0-0-0-0-0--5-0-0-0-0-0-0-0-0-0-0-0-0-0-0-0-6-0|
It's a mess but I hope it helps. RUSS




[ Tab from: http://www.guitartabs.cc/tabs/s/sepultura/propaganda_btab.html ]
Comments