Sepultura - Procreation Of The Wicked Chords & Tabs

 

Procreation Of The Wicked Chords & Tabs

Sepultura Chords & Tabs

Version: 2 Type: Bass Tab 0 ratings
1 star 2 stars 3 stars 4 stars 5 stars
comments

Procreation Of The Wicked Bass Tab

   
Roots of Sepultura - www.treibsand.com/sepultura
"Procreation of the Wicked" - Sepultura version
5 string bass downtuned 1/2 a step.
by Chris Weigt
Intro:
Eb|-7----7----7----7----|
Bb|-0----0----0----0----|
Riff 1a
Eb|-----------------|
Bb|-5-6-0-0-3-2-3-5-|
Eb|------------------|
Bb|-5-55555555555550-|
Riff 1b
Eb|--------------------|
Bb|-6b(7)r-0-0-3-2-3-5-|
Verse: (I just keep in time with the drums here)
Eb|-------------------------------|
Bb|-0--0-0-0-0-0-5-6--6-6-6-6-6-6-|
Chorus:
Eb|------------3-4-4/6-6\5-|
Bb|-3--3-3-3-3-------------|
Interlude:
Eb|-----------------|
Bb|-1-1-1-1-1-1-4-4-|


[ Tab from: http://www.guitartabs.cc/tabs/s/sepultura/procreation_of_the_wicked_btab_ver_2.html ]
Comments