Sepultura - Policia Chords & Tabs

 

Policia Chords & Tabs

Sepultura Chords & Tabs

Version: 2 Type: Tab 0 ratings
1 star 2 stars 3 stars 4 stars 5 stars
comments

Policia Tab

   
Artist: Sepultura
Song titel: Policia
Album: Blood - Rooted

This is the whole song within the solo.
Legend:
  ^ - Bend
 /\ - Slide up - down
  p - pull off
  h - hammer on
  * - Natural harmonic
 pm - palm mute
 ~  - Vibration
Tuning E

Riff 1
|-------------------------|
|-------------------------|
|-------------------------|
|-------3-3---------------|
|--5-5--1-1--3-3-3--3-3-3-|
|--3-3-------1-1-1--1-1-1-|

Corus 
|-------------------------------------------|
|-------------------------------------------|
|-------------------------------------------|
|-------------------------------3-3---------|
|--5-5-5--5-5--3-3-3--3-3--5-5--1-1--3-3-3--|
|--3-3-3--3-3--1-1-1--1-1--3-3-------1-1-1--|
          * *         * *
Solo intro                3x
|--------------------------|
|--------------------------|
|--------------------------|
|--------------------------|
|--2-2--------2-2-2-2-2----|
|--0-0--0-----0-0-0-0-0--0-|
 pm- -        - - - - -          

|------------------------------------------------------------------|
|------------10-10-10-10-10-10-10----------------------------------|
|------------12-12-12-12-12-12-12----------------------------------|
|------------------------------------------------------------------|
|--2-2------------------------------2-2--------2-2-2-2-2-2-2-2-2-2-|
|--0-0--0---------------------------0-0--0-----0-0-0-0-0-0-0-0-0-0-|
 pm- -                              - -        - - - - - - - - - - 
[ Tab from: http://www.guitartabs.cc/tabs/s/sepultura/policia_tab_ver_2.html ]
Solo
|-------------------------------------------------------------------|
|----------13h-10p--------------------------13h-10p---------13h-10p-|
|--12h-10p---------12h-10p--10h-9p--12h-10p---------12h-10p---------|
|-------------------------------------------------------------------|
|-------------------------------------------------------------------|
|-------------------------------------------------------------------|

|-------------------------------------------------------------------|
|----------15h-12p---------15h-12p---------17h-14p---------18h-15p--|
|--14h-12p---------14h-12p---------16h-14p---------17h-15p----------|
|-------------------------------------------------------------------|
|-------------------------------------------------------------------|
|-------------------------------------------------------------------|

|----------------------------------|
|----------19h-17p-17-20h-17p--20^-|
|--18h-16p-------------------------|
|----------------------------------|
|----------------------------------|
|----------------------------------|

|---------------------------------------------------------------------|
|---------------------------------------------------------------------|
|---------------------------------------------------------------------|
|-------3-------------------3-------------------------3-3---3-3-3-3-3-|
|--5-5--1--------------5-5--1--------------------5-5--1-1---3-3-3-3-3-|
|--3-3-----------------3-3-----------------------3-3--------3-3-3-3-3-|
                                                            * * * * *

|---------------------|
|---------------------|
|---------------------|
|-------3-3-----------|
|--5-5--1-1---3/15~---|
|--3-3----------------|

Outro - Riff 1          4x
|------------------------|----------------|
|------------------------|----------------|
|------------------------|----------------|
|-------3-3--------------|----------------|
|--5-5--1-1--3-3-3--333--|--3333333333-3--|
|--3-3-------1-1-1--111--|--1111111111-1--|
                         pm ----------

I'm not relly sour about this solo part, but any questions for 
this e-mail me: freakshow666@t-online.de
Cheers!
Comments