Sepultura - Orgasmatron Chords & Tabs

 

Orgasmatron Chords & Tabs

Sepultura Chords & Tabs

Version: 2 Type: Tab 0 ratings
1 star 2 stars 3 stars 4 stars 5 stars
comments

Orgasmatron Tab

Artist:	Sepultura
Title:	Orgasmatron


Note: I just wanted to post something up so pardon the 
      imperfections... please e-mail me for any 
      comments or corrections.

Transcribed by:  tekguy28@hotmail.com


  >>
e|---------------------------------------------------------|
B|---------------------------------------------------------|
G|---------------------------------------------------------|
D|-9--9-9-9-x--9--9-9-9-x--9--9-9-9-x--9--9-9-9-x----------|
A|-7--7-7-7-7--7--7-7-7-7--7--7-7-7-7--7--7-7-7-7----------|
E|-0--0-0-0-0--0--0-0-0-0--0--0-0-0-0--0--0-0-0-0----------|
[ Tab from: http://www.guitartabs.cc/tabs/s/sepultura/orgasmatron_tab_ver_2.html ]
e|---------------------------------------------------------|
B|---------------------------------------------------------|
G|---------------------------------------------------------|
D|---------------------------------------------------------|
A|-7-7--7-7--7-7--7-7--7-7--7-7--7-7--7-7--7-7--7-7--7-7---|
E|-5-5--5-5--5-5--5-5--5-5--5-5--5-5--5-5--5-5--5-5--5-5---|

e|-------------------------|-------------------------------|
B|-------------------------|-------------------------------|
G|-------------------------|-------------------------------|
D|-------------------------|-9--9-9-9-x--9--9-9-9-x--------|
A|-7-7--7-7--7-7--7-7--7-7-|-7--7-7-7-7--7--7-7-7-7--------|
E|-5-5--5-5--5-5--5-5--5-5-|-0--0-0-0-0--0--0-0-0-0--------|
		
	     << repeat once	
e|-------------------------||
B|-------------------------||
G|-------------------------||
D|-9--9-9-9-x--9--9-9-9-x--||
A|-7--7-7-7-7--7--7-7-7-7--||
E|-0--0-0-0-0--0--0-0-0-0--||

e|-------------------------|-------------------------------|
B|-------------------------|-------------------------------|
G|-------------------------|-------------------------------|
D|-------------------------|-9--9-9-9-x--9--9-9-9-x--------|
A|-10----------12----------|-7--7-7-7-7--7--7-7-7-7--------|
E|-8-----------10----------|-0--0-0-0-0--0--0-0-0-0--------|


Comments