Sepultura - Lookaway Chords & Tabs

 

Lookaway Chords & Tabs

Sepultura Chords & Tabs

Version: 1 Type: Bass Tab 0 ratings
1 star 2 stars 3 stars 4 stars 5 stars
comments

Lookaway Bass Tab

-------------------------
***Lookaway--Sepultura***
-------------------------


5-string bass tuned down 1/2 step

INTRO:(gtr)


G|----------------------------------------------------|
D|----------------------------------------------------|
A|----------------------------------------------------|
E|----------------------------------------------------|
B|-1--1--1--1--1--1--1--1--1--1--1--1--1--7--7--7--7--|

G|-------------------------------------|
D|-------------------------------------|
A|-------------------------------------|
E|-------------------------------------|
B|-1--1--1--1--1--1--1--1--1--1--1--0--|

The bass pedals Bb (open B string) throughout the intro.


VERSE:
[ Tab from: http://www.guitartabs.cc/tabs/s/sepultura/lookaway_btab.html ]
G|------------------------------------------|
D|------------------------------------------|
A|------------------------------------------|
E|------------------------------------------|
B|--8/7--0-0--6/5--8/7--0-0--6/5--8/7--0-0--|


CHORUS:

G|-----------------------------------|
D|-----------------------------------|
A|-----------------------------------|
E|-----------------------------------|
B|--2--1--4--2--1--4--2--1--4--2--1--|


BRIDGE:

G|-----------------------------------------|
D|-----------------------------------------|
A|-----------------------------------------|
E|-----------------------------------------|
B|--2--2--2--1--1--1--1--1--1--1--0--0--0--|


transcribed by max asare

Comments