Sepultura - Kaiowas Chords & Tabs

 

Kaiowas Chords & Tabs

Sepultura Chords & Tabs

Version: 3 Type: Tab 0 ratings
1 star 2 stars 3 stars 4 stars 5 stars
comments

Kaiowas Tab

   
-----------------------------------------------------------------------------
			     Kaiowas - Sepultura
-----------------------------------------------------------------------------
Tabbed by:buriedbythemachine
Email:buriedbythemachine@hotmail.com

Tuning: these are the correct chords but i'm not 100% about the tuning. 
probably drop d but sounds fine in standard. make your won strum pattern.
i've only included the chords played not how they are played.  if you cant
figure out how they are played, give up guitar entirely. even if it isn't
100% correct. this tab still sounds good on its own.

quiet intro part. not entirely sure of this but havnt seen any tabs for it
so i gave it a shot
  a few times 
e|------------------------------------|play with this chord a bit------------
B|---------------------------------------------------------------------------
G|-7-4-3-------13----------------------------7-------------------------------
D|-x-x-x-------x-----------------------------x-------------------------------
A|-5-2-1-------11---7-7-5-7-9-9/-13-13-5---5-5-------------------------------
D|-0-0-0-------0-----------------------0-0---0-------------------------------

then the main part os the song starts
	   main chords. strum pattern can be worked out easily
e|-|couple times|------------------------------------------------------------
B|---------------------------------------------------------------------------
G|-7--7--7--7--7---7-4-3-----------------------------------------------------
D|-x--x--x--x--x---x-x-x-----------------------------------------------------
A|-5--5--5--5--5---5-2-1-----------------------------------------------------
D|-0--0--0--0--0---0-0-0-----------------------------------------------------

    quieter part
e|---------------------------------------------------------------------------
B|---------------------------------------------------------------------------
G|-11-11-11-13-13-13---------------------------------------------------------
D|-x--x--x--x--x--x----------------------------------------------------------
A|-9--9--9--11-11-11---------------------------------------------------------
D|-0--0--0--0--0--0----------------------------------------------------------
   
   then
e|---------------------------------------------------------------------------
B|---------------------------------------------------------------------------
G|-7-13-7-11-----------------------------------------------------------------
D|-x-x--x-x-----------------------------------------------------------------
A|-5-11-5-9------------------------------------------------------------------
D|-0-0--0-0------------------------------------------------------------------
[ Tab from: http://www.guitartabs.cc/tabs/s/sepultura/kaiowas_tab_ver_3.html ]
   quiet again, play each several times
e|---------------------------------------------------------------------------
B|---------------------------------------------------------------------------
G|-7-14-13-------------------------------------------------------------------
D|-x-x--x--------------------------------------------------------------------
A|-5-12-11-------------------------------------------------------------------
D|-0-0--0--------------------------------------------------------------------

   these two chords are played before the solo
e|---------------------------------------------------------------------------
B|---------------------------------------------------------------------------
G|-7-5-----------------------------------------------------------------------
D|-x-x-----------------------------------------------------------------------
A|-5-3-----------------------------------------------------------------------
D|-0-0-----------------------------------------------------------------------

   solo  play this bit twice
e|-8--8--8--8--8--7--5-5-5-5-5-3---------------------------------------------
B|-10-10-10-10-10-8--7-7-7-7-7-5---------------------------------------------
G|---------------------------------------------------------------------------
D|---------------------------------------------------------------------------
A|---------------------------------------------------------------------------
D|---------------------------------------------------------------------------

e|-8--8--8--8--8--7--5-5-5-5-5-3--2-2-2-2-2-0-2-2-2-2-2----------------------
B|-10-10-10-10-10-8--7-7-7-7-7-5--3-3-3-3-3-1-3-3-3-3-3----------------------
G|---------------------------------------------------------------------------
D|---------------------------------------------------------------------------
A|---------------------------------------------------------------------------
D|---------------------------------------------------------------------------

e|-10-10-10-12-12-12-10-10-10-8--8--8--7-7-7-5-5-5-3-3-3-5-5-5---------------
B|-12-12-12-13-13-13 12-12-12-10-10-10-8-8-8-7-7-7-5-5-5-7-7-7---------------
G|---------------------------------------------------------------------------
D|---------------------------------------------------------------------------
A|---------------------------------------------------------------------------
D|---------------------------------------------------------------------------

e|10-10-10-10-12-12-12-12-10-10-10-10-8-8-8-8-7-7-7-7-5-5-5-5-3-3-3-3-2-2-2-2
B|12-12-12-12-13-13-13-13-12-12-12-12-101010108-8-8-8-7-7-7-7-5-5-5-5-3-3-3-3
G|---------------------------------------------------------------------------
D|---------------------------------------------------------------------------
A|---------------------------------------------------------------------------
D|---------------------------------------------------------------------------

   these two chords until the end
e|---------------------------------------------------------------------------
B|---------------------------------------------------------------------------
G|-7-5-----------------------------------------------------------------------
D|-x-x-----------------------------------------------------------------------
A|-5-3-----------------------------------------------------------------------
D|-0-0-----------------------------------------------------------------------

| /  slide up
| \  slide down
| h  hammer-on
| p  pull-off
| ~  vibrato
| +  harmonic
| x  Mute note
=============================================================================
Comments