Sepultura - Inner Self Chords & Tabs

 

Inner Self Chords & Tabs

Sepultura Chords & Tabs

Version: 1 Type: Tab 0 ratings
1 star 2 stars 3 stars 4 stars 5 stars
comments

Inner Self Tab

================================================================================
         Title : Inner Self
        Artist : Sepultura
         Album : Beneath the remains
Transcribed by : By DimeBolt (dime_bolt@email.com)
================================================================================

    Legend
    ------
    h     - Hammer-on
    p     - Pull-off
    ~     - Vibrato
    /     - Slide up
    \     - Slide down
    Repeat previous bar
   %    - Repeat previous two bars
 Not Sure - Riff may not be accurate


                                        Notes in () played by second guitar
1||-----------------|-----------------||-----------------|-----------------||
2||-----------------|-----------------||--(6)------------|-----------------||
3||-----------------|-----------------||(4)-(4)----------|-----------------||
4||-----------------|-----------------||---3--(3)--------|-----------------||
5||-3-2-2-2-2-2-2-2-|-2-2-2-2-2-2-2-2-||-2---2---2-2-2-2-|-2-2-2-2-2-2-2-2-||
6||-1-0-0-0-0-0-0-0-|-0-0-0-0-0-0-0-0-||-------1-0-0-0-0-|-0-0-0-0-0-0-0-0-||

   Notes in () played by second guitar
1||-----------------|-----------------||-----------------|-----------------||
2||-----------------|-----------------||-----------------|-----------------||
3||-----------------|----------(8)----||-----------------|-----------------||
4||-----------------|----------(8)----||-----------------|-----3-3-3-3-3-3-||
5||-3-2-------------|-----------------||-2-2-2-2-2-2-2-2-|-2-2-1-1-1-1-1-1-||
6||-1-0-------------|---------0-0-0-0-||-0-0-0-0-0-0-0-0-|-0-0-0-0-0-0-0-0-||


1||-----------------|-----------------||-----------------|-----------------|
2||-----------------|-----------------||-----------------|-----------------|
3||-----------------|-----------------||-----------------|-----------------|
4||-----------------|-----------------||-----------------|-----------------|
5||-2h3-2---2-2-2-2-|-2-2-2-2-2-2-2-2-||-6p5-6---6-6-6-6-|-6-6-6-6-6-6-6-6-|
6||-0h1-0---0-0-0-0-|-0-0-0-0-0-0-0-0-||-4---4---4-4-4-4-|-4-4-4-4-4-4-4-4-|

                                        Not sure about note in ()
1||-----------------|-----------------||-----------------|-----------------|
2||-----------------|-----------------||-----------------|-----------------|
3||-----------------|-----------------||-----------------|-----------------|
4||-----------------|-----------------||-----------------|-----------------|
5||-6p5-6---6-6-6-6-|-5-5-5-5-5-5-5-5-||-6-5---5-5-4-4-4-|-6-5---5-5-3-3-3-|
6||-4---4---4-4-4-4-|-3-3-3-3-3-3-3-3-||-4-3(0)3-3-2-2-2-|-4-3(0)3-3-1-1-1-|


1||-----------------|-----------------||-----------------||
2||-----------------|-----------------||-----------------||
3||-----------------|-----------------||-----------------||
4||-----------------|-----------------||-----------------||
5||-6\5---5-5-4-4-4-|-6\5---5-5-3-3-3-||-2-2---2---2---2-||
6||-4\3(0)3-3-2-2-2-|-4\3(0)3-3-1-1-1-||-0-0---0---0---0-||

                                          Backing for next riff
1||------------------|------------------||-----|-----|-----|-----||
2||------------------|------------------||-----|-----|-----|-----||
3||------------------|------------------||-----|-----|-----|-----||
4||---------3--------|-6----------------||-7---|-7---|-6---|-6---||
5||-2-------1-111111-|-4-4444442--------||-5---|-5---|-4---|-4---||
6||-0-000000---------|---------0-000000-||-----|-----|-----|-----||

   Use Pull-offs to link notes
1||-----------------|-----------------|-----------------|-----------------||
2||-----------------|-----------------|-----------------|-----------------||
3||-----------------|-----------------|-----------------|-----------------||
4||-75----75----75--|-75----75----75--|-64----64----64--|-64----64----64--||
5||---8575--8575--85|---8575--8575--85|---7464--7464--74|---7464--7464--74||
6||-----------------|-----------------|-----------------|-----------------||
[ Tab from: http://www.guitartabs.cc/tabs/s/sepultura/inner_self_tab.html ]
                      Backing for clean part
1||-----------------||----|----|----|----||-------|-------|-------|-------|
2||-----------------||----|----|----|----||-------|-------|-------|-------|
3||-----------------||----|----|----|----||-------|-------|-------|-------|
4||-----------------||----|----|----|----||-------|-4--5--|-------|-4--5--|
5||-2---2---2---2---||-6--|-6--|-6--|-6--||-6-----|-2--3--|-6-----|-2--3--|
6||-0---0---0---0---||-4--|-4--|-4--|-4--||-4-----|-------|-4-----|-------|

                                        Clean riff
1||-----------------|-----------------||----------------|-----------------|
2||-----------------|-----------------||----------------|-----------------|
3||-----------------|-----------------||----------------|---------0-------|
4||-----------------|-4-4-4-4-5-5-5-5-||-----0----------|-----0-----0---0-|
5||-6-6-6-6-6-6-6-6-|-2-2-2-2-3-3-3-3-||---6------------|---6---------6---|
6||-4-4-4-4-4-4-4-4-|-----------------||-4--------------|-4---------------|

                                        Faster
1||-----------------|-----------------||----------------|-----------------||
2||-----------------|-----------------||----------------|-----------------||
3||-----------------|-----0-------0---||----------------|-----------------||
4||-----0-----------|---4-------5-----||----------------|-----------------||
5||---6-------------|-2-------3-------||-2--------------|-2-2-2-2-2-2-2-2-||
6||-4---------------|-----------------||-0--------------|-0-0-0-0-0-0-0-0-||


1||-----------------|-----------------||-----------------|-----------------||
2||-----------------|-----------------||-----------------|-----------------||
3||-----------------|-----------------||-----------------|-----------------||
4||-----------------|-----------------||-----------------|-----------------||
5||-5\4-------------|-5\4-----6---6---||-2-2-2-2-2-2-2-2-|-1-1-1-1-1-1-1-1-||
6||-3\2-0-0-0-0-0-0-|-3\2-0-0-4---4---||-0-0-0-0-0-0-0-0-|-0-0-0-0-0-0-0-0-||

                                        Solo
1||-----------------|-----------------||-----------------|-----------------||
2||-----------------|-----------------||-----------------|-----------------||
3||-----------------|-----------------||-----------------|-----------------||
4||-----------------|-----------------||-----------------|-----------------||
5||-5\4-----2-------|-5\4-----6---6---||-4-4-4-4-4-4-4-4-|-3-3-3-3-3-3-3-3-||
6||-3\2-00000---0000|-3\2-00004---4---||-2-2-2-2-2-2-2-2-|-2-2-2-2-2-2-2-2-||


1||------|------|------|------||-----------------|-----------------||
2||------|------|------|------||-----------------|-----------------||
3||------|------|------|------||-----------------|-----------------||
4||-5----|-4----|------|-3----||-----------------|-----------------||
5||-3----|-2----|-2----|-1----||-----------------|---------8\7/8---||
6||------|------|-0----|------||-0-0-0-0-0-0-0-0-|-0-0-0-0-6\5/6---||


1||-----------------|-----------------||------------------|---|---|------------------||
2||-----------------|-----------------||------------------|---|---|------------------||
3||-----------------|-----------------||------------------|-|-|------------------||
4||-----------------|-----------------||------------------|---|---|------------------||
5||-9---------------|---------8---8---||---------------33-|---|---|------------------||
6||-7---0-0-0-0-0-0-|-0-0-0-0-6---6---||-11111111332211---|---|---|-0000000000000000-||

   Slower
1||------------------|---|---|------------------||------------------|-----------------||
2||------------------|---|---|------------------||------------------|-----------------||
3||------------------|-|-|------------------||------------------|-----------------||
4||------------------|---|---|------------------||------------------|-----------------||
5||-2--4----7-888888-|---|---|------------------||------------------|-2-2--2--2--2-2--||
6||-0--2--0-5-666666-|---|---|-0-0000000-000000-||-0-0000000-000000-|-0-0--0--0--0-0--||
Comments