Sepultura - Dusted Chords & Tabs

 

Dusted Chords & Tabs

Sepultura Chords & Tabs

Version: 1 Type: Tab 0 ratings
1 star 2 stars 3 stars 4 stars 5 stars
comments

Dusted Tab

   
-------------------------------------------------------------------------------
			     Sepultura - Dusted
-------------------------------------------------------------------------------

Tuning:  A# F A# D# G C

C-|--------------------------------------------------------------------------|
G-|--------------------------------------------------------------------------|
D#|--------------------------------------------------------------------------|
A#|------------------------0-------------------------------------------------|
F-|4-3---0-3---4-3---0-3---0-------------------------------------------------|
A#|4-3---0-3---4-3---0-3---0-------------------------------------------------|
   * *   * *   * *   * *
C-|--------------------------------------------------------------------------|
G-|--------------------------------------------------------------------------|
D#|--------------------------------------------------------------------------|
A#|4-3---0-3---4-3---0-3---0-------------------------------------------------|
F-|4-3---0-3---4-3---0-3---0-------------------------------------------------|
A#|4-3---0-3---4-3---0-3---0-------------------------------------------------|

C-|--------------------------------------------------------------------------|
G-|--------------------------------------------------------------------------|
D#|--------------------------------------------------------------------------|
A#|--------------------------------------------------------------------------|
F-|--------------------------------------------------------------------------|
A#|0-2---0-3~------0-3---0-6~------------------------------------------------|

C-|--------------------------------------------------------------------------|
G-|--------------------------------------------------------------------------|
D#|--------------------------------------------------------------------------|
A#|0--2--0--3-------0--3--0--6-----------------------------------------------|
F-|0--2--0--3-------0--3--0--6-----------------------------------------------|
A#|0--2--0--3-------0--3--0--6-----------------------------------------------|

C-|--------------------------------------------------------------------------|
G-|--------------------------------------------------------------------------|
D#|--------------------------------------------------------------------------|
A#|0-2---0-3-------0-2---0-3-------0-2---0-3---------7-------6---------------|
F-|0-2---0-3-------0-2---0-3-------0-2---0-3---------7-------6---------------|
A#|0-2---0-3-------0-2---0-3-------0-2---0-3-------0-7-----0-6---------------|
   *     *         *     *         *     *         *       *
C-|--------------------------------------------------------------------------|
G-|--------------------------------------------------------------------------|
D#|--------------------------------------------------------------------------|
A#|0-2---0-3-------0-2---0-3-------0-2---0-3-------0-2---0-3-----------------|
F-|0-2---0-3-------0-2---0-3-------0-2---0-3-------0-2---0-3-----------------|
A#|0-2---0-3-------0-2---0-3-------0-2---0-3-------0-2---0-3-----------------|
   *     *         *     *         *     *         *     *
C-|--------------------------------------------------------------------------|
G-|--------------------------------------------------------------------------|
D#|--------------------------------------------------------------------------|
A#|--1-----0---------1-----0---------1-----0---------1-----0-----------------|
F-|0-1---0-0-------0-1---0-0-------0-1---0-0-------0-1---0-0-----------------|
A#|0-1---0-0-------0-1---0-0-------0-1---0-0-------0-1---0-0-----------------|
   *     *         *     *         *     *         *     *
[ Tab from: http://www.guitartabs.cc/tabs/s/sepultura/dusted_tab.html ]
C-|--------------------------------------------------------------------------|
G-|--------------------------------------------------------------------------|
D#|--------------------------------------------------------------------------|
A#|3-----4-------3-----4-------3-----4---------------------------------------|
F-|3-----4-------3-----4-------3-----4---------------------------------------|
A#|3-----4-------3-----4-------3-----4---------------------------------------|

C-|--------------------------------------------------------------------------|
G-|--------------------------------------------------------------------------|
D#|--------------------------------------------------------------------------|
A#|3-----4---0---3-----4---0---3-----4---0---3---4---3-----------------------|
F-|3-----4---0---3-----4---0---3-----4---0---3---4---3-----------------------|
A#|3-----4---0---3-----4---0---3-----4---0---3---4---3-----------------------|

C-|--------------------------------------------------------------------------|
G-|--------------------------------------------------------------------------|
D#|--------------------------------------------------------------------------|
A#|3-------------------------------------------------------------------------|
F-|3-------------------------------------------------------------------------|
A#|3-------------------------------------------------------------------------|

C-|--------------------------------------------------------------------------|
G-|--------------------------------------------------------------------------|
D#|--------------------------------------------------------------------------|
A#|4-----3---3---4-----3---3---0-----3---3---0-----3---3---------------------|
F-|2-----3---3---2-----3---3---0-----3---3---0-----3---3---------------------|
A#|------3---3---------3---3---0-----3---3---0-----3---3---------------------|

C-|--------------------------------------------------------------------------|
G-|--------------------------------------------------------------------------|
D#|--------------------------------------------------------------------------|
A#|3------------------------------7-\-6---6---9-----9------------------------|
F-|3------------------------------7-\-6---6---9-----9------------------------|
A#|3------------------------------7-\-6---6---9-----9------------------------|

C-|--------------------------------------------------------------------------|
G-|--------------------------------------------------------------------------|
D#|--------------------------------------------------------------------------|
A#|0-------------------------------------------------------------------------|
F-|0-------------------------------------------------------------------------|
A#|0-------------------------------------------------------------------------|

C-|--------------------------------------------------------------------------|
G-|--------------------------------------------------------------------------|
D#|--------------------------------------------------------------------------|
A#|--------------------------------------------------------------------------|
F-|--------------------------------------------------------------------------|
A#|0h1-1---1---0h1---1---0h1-------------------------------------------------|

C-|--------------------------------------------------------------------------|
G-|--------------------------------------------------------------------------|
D#|--------------------------------------------------------------------------|
A#|0-------------------------------------------------------------------------|
F-|0-------------------------------------------------------------------------|
A#|0-------------------------------------------------------------------------|

| *  palm mute
| /  slide up
| \  slide down
| h  hammer-on
| p  pull-off
| ~  vibrato
| +  harmonic
| x  Mute note
===============================================================================
Comments