Sepultura - Desperate Cry Chords & Tabs

 

Desperate Cry Chords & Tabs

Sepultura Chords & Tabs

Version: 1 Type: Bass Tab 0 ratings
1 star 2 stars 3 stars 4 stars 5 stars
comments

Desperate Cry Bass Tab

Desperate cry
Sepultura:

Tuned down 1/2 step.

Intro:
||---------------|--------------------||-------------------|-----||
||---------------|--------------------||-------------------|--%--||
||---------------|--------------------||-------------------|-----||
||--0---0---0----|----0---0---0---1---||--1-1-1-1-1-1-1-1--|-----||

||----------------|----------------|----------------|--------------|
||----------------|----------------|----------------|--------------|
||-2--------------|-2--------------|-2--------------|-2-2-2--3-3-3-|
||----1-1-1-1-1-1-|----1-1-1-1-1-1-|----1-1-1-1-1-1-|--------------|

|-----||----------------|----------------|----------------|
|--%--||----------------|----------------|----------------|
|-----||-7--------------|-7--------------|-7--------------|
|-----||----1-1-1-1xxxx-|----1-1-1-1xxxx-|----1-1-1-1xxxx-|

|--------------|-----||-----|--------|-----|--------||
|-2-2-2--3-3-3-|--%--||-----|--------|-----|--------||
|--------------|-----||-----|--2-----|-----|--2-----||
|--------------|-----||--1--|-----1--|--1--|-----1--||

verse 1:
||------------------|-------------|-----|-----|-----||
||------------------|-------------|--%--|--%--|--%--||
||-------------3-2--|-------------|-----|-----|-----||
||-2-1-1-3-4-1------|-3-1-1-1-1-1-|-----|-----|-----||

bridge 1:
||--------------------------------|-----|-----|-----||
||--------------------------------|--%--|--%--|--%--||
||--2-----2-----2-----------------|-----|-----|-----||
||-----1-----1-------1-1-1-1-1-1--|-----|-----|-----||

bridge 2:
||---------------|---------------|----------------|--------------|
||---------------|---------------|----------------|-2-2-2--3-3-3-|
||-2-------------|-7-------------|-7--------------|--------------|
||---1-1-1-1xxxx-|---1-1-1-1xxxx-|---1-1-1-1xxxx--|--------------|

|-----|-----|-----||
|--%--|--%--|--%--||
|-----|-----|-----||
|-----|-----|-----||

verse:
||------------------|-------------|-----|-----|-----||
||------------------|-------------|--%--|--%--|--%--||
||-------------3-2--|-------------|-----|-----|-----||
||-2-1-1-3-4-1------|-3-1-1-1-1-1-|-----|-----|-----||




bridge 1:
||--------------------------------|-----|-----|-----||
||--------------------------------|--%--|--%--|--%--||
||--2-----2-----2-----------------|-----|-----|-----||
||-----1-----1-------1-1-1-1-1-1--|-----|-----|-----||
[ Tab from: http://www.guitartabs.cc/tabs/s/sepultura/desperate_cry_btab.html ]
brake:
||-------------------||-------------------------|-----|-----|-----||
||-------------------||-------------------------|--%--|--%--|--%--||
||-------------------||-------4-----5-----4-----|-----|-----|-----||
||-3xxxxxxxxxxxxxx-2-||-2-2-2---2-2---2-2---3-3-|-----|-----|-----||

||-----------------------------------------------------------|-----||
||-----------------------------------------------------------|--%--||
||-----------------------------------------------------------|-----||
||-2xxxxxxxxxxxxxxxxx3xxx2xxxxxxxxxxxxxxxxx1xxxxxxxxxxxxxxxx-|-----||

||-------------------------|-----|-----|-----||
||-------------------------|--%--|--%--|--%--||
||-------4-----5-----4-----|-----|-----|-----||
||-2-2-2---2-2---2-2---3-3-|-----|-----|-----||

||-----------------------------|-----|-----|-----||
||-----------------------------|--%--|--%--|--%--||
||---------------------------4-|-----|-----|-----||
||-2xxxxxxxxxxx-3xxxxxxxxxxx---|-----|-----|-----||

Brake:
||---|-----||-------|-----|-----|-----||
||---|-----||-------|--%--|--%--|--%--||
||---|-2---||-------|-----|-----|-----||
||-1-|---1-||-0---1-|-----|-----|-----||

Bridge 3:
||---------------------------------------------|-----|-----|-----||
||---------------------------------------------|--%--|--%--|--%--||
||---------------------------------------------|-----|-----|-----||
||-1xxxxxxxxxxx-1xxxxx-1xxxxxxxxxxx-1xxxxxxx-2-|-----|-----|-----||

||-------------------------------|------------------------------|
||-------------------------------|------------------------------|
||-------------------------------|------------------------------|
||-1-1-1-1-1-1-1-1-1-1-1-1-1-1-2-|-1-1-1-1-1-1-1-1-2-1-3-4-3-2-2|

|-----|-----|-----||
|--%--|--%--|--%--||
|-----|-----|-----||
|-----|-----|-----||

||---------------|---------------|----------------|---------------|
||---------------|---------------|----------------|---------------|
||-7-------------|-7-------------|-7--------------|---------------|
||---1-1-1-1xxxx-|---1-1-1-1xxxx-|---1-1-1-1xxxx--|-1-1-1--1-1-1--|



Solo:
||-------|-----|-----|-----||-------------------|---|---|---|---|---||
||-------|--%--|--%--|--%--||-------------------|-%-|-%-|-%-|-%-|-%-||
||-4-----|-----|-----|-----||-4---4-3-------(3)-|---|---|---|---|---||
||-----1-|-----|-----|-----||---------4-3-1-----|---|---|---|---|---||

Outro:
||---------------|------------------|
||-2-------------|-%-until-it-fades-|
||---------------|------------------|
||---111-111-111-|------------------|

schjaack@hotmail.com

Comments