Sepultura - Cut Throat Chords & Tabs

 

Cut Throat Chords & Tabs

Sepultura Chords & Tabs

Version: 1 Type: Bass Tab 0 ratings
1 star 2 stars 3 stars 4 stars 5 stars
comments

Cut Throat Bass Tab

---------------------------
***Cut-throat--Sepultura***
---------------------------

Written by Sepultura

5-string bass tuned down 1/2 step

INTRO:

G|---------------------------------------------------|
D|---------------------------------------------------|
A|---------------------------------------------------|
E|---------------------------------------------------|
B|--0--0--0--0--0--0--0--0--0--0--0--0--0h1--1--1h2--|


CHORUS:

A|--------------------------------|
E|--------------------------------|
B|--0--0--0---0--0--0---0h1--1h2--|


VERSE:
[ Tab from: http://www.guitartabs.cc/tabs/s/sepultura/cut_throat_btab.html ]
A|--------------------------------------|
E|--------------------------------------|
B|--0--0--0--0--0--0--0--0--0--0--0--0--|

A|---------------------------------|
E|--7--7--7--7--7--7h8--8--8h9--9--|
B|---------------------------------|


BRIDGE:

A|-----------|  PLAY 
E|-----------|       FOUR
B|--0--0--1--|             TIMES

A|--------------------------|  PLAY
E|-----2--1-----2--1--2--1--|    FOUR
B|--0--------0--------------|      TIMES

A|-----------------------------
E|-----------------------------
B|--0--0--0--0--0--0--0--0--0--... (KEEP PEDALING Bb)

transcribed by max asare

Comments