Sepultura - Clenched Fist Chords & Tabs

 

Clenched Fist Chords & Tabs

Sepultura Chords & Tabs

Version: 2 Type: Bass Tab 0 ratings
1 star 2 stars 3 stars 4 stars 5 stars
comments

Clenched Fist Bass Tab

Clenched Fist Bass TabsRoots of Sepultura - www.treibsand.com/sepultura
Clenched Fist by Sepultura
The Bass is hard to hear so forgive any mistakes please.
I think this too is on an E flat. 
                                 RUSS FARHA/DALLAS,TX
Riff 1
E--0-0-12--0-0-12--0-0-12--0-0-12--0-0-12--0-0-12--0-0-12--0-0-12----|
Riff 2
E--0-0-0-0-0-0-0-(etc)-1-4-3-0--1-4-3-0--1-4-3-0--1-4-3----|
Verse=Riff 1
Riff 3
A--7-7-7-6-6-6-6-6-3-3-3-2-2-2-2-2----|
E-------------------------------------| a couple times
Riff 4= Riff 2 with 16ths on the open E flat
Riff 5
E--4-4-4-7--4-4-4-7----|
R.6
E--3-3-3-3-3-3-3-3-3-33-3-3-3-3-3-3-3-3-3-3--| jam it then repeat above
Riff 7 (chorus-"Soul, Mind, Fist!")
A-----------------------------2-1-----|
E--1-1-1-0--1-1-1-0--1-1-1-0------1---|
Riff 8 (nterlude)
E--0-0-0-0-6-6-6-6-6-6-6-6-6-6-6-6--0-0-0-0-7-7-7-7-7-7-7-7-7-7-7-7--|         
Riff 9 (solo) 
E--1-1-0--1-1-0--1-1-0--1-1-0--1-1-0--1-1-0-1-1-1-4-3----|
Riff 10
E--0-7-6----0--7-6----|
Outro
E--0-2-0-2-0-2-5-4--0-2-0-2-0-2-6-8-9--|
E--0-0-0-0-2--0-0-0-0-2--0-0-0-0-2--5-4--0-0-0-0-2--0-0-0-0-2--0-0-0-0-2--6-8-9---|
E--0-----------|

End.  Enjoy!  Russ Farha/ DALLAS,TX


[ Tab from: http://www.guitartabs.cc/tabs/s/sepultura/clenched_fist_btab_ver_2.html ]
Comments