Sepultura - Buried Words Chords & Tabs

 

Buried Words Chords & Tabs

Sepultura Chords & Tabs

Version: 1 Type: Tab 0 ratings
1 star 2 stars 3 stars 4 stars 5 stars
comments

Buried Words Tab

   
                                  BURIED WORDS
                            As recorded by Sepultura
                         (From the 2006 Album DANTE XXI)

Words by Derrick Green
Music by Igor Cavalera, Derrick Green & Andreas Kisser

Transcribed by BaronLundi

Tuning (Bb Eb Ab Db F Bb)

Q=178
4/4

  \1____________/
  W            +H.      +Q
|------------|--------------|
|------------|--------------|
|------------|--------------|
|------------|--------------|
|------------|--------------|
|-0----------|-(0)------(0)-|


    E E E E E E E E   E E E  E  E  E  E  E  4x
||------------------|-----------------------||
||o-----------------|----------------------o||
||------------------|-----------------------||
||--6-7-7-8-7-7-7-8-|-7-7-7-10-10-10-10-10--||
||o-0-0-0-0-0-0-0-0-|-0-0-0--0--0--0--0--0-o||
||------------------|-----------------------||


    
    E E E E E E E E   E E E  Q   E  E  E  8x
||------------------|---------------------||
||o-----------------|--------------------o||
||------------------|---------------------||
||--6-7-7-8-7-7-7-8-|-7-7-7-10--10-10-10--||
||o-0-0-0-0-0-0-0-0-|-0-0-0--0---0--0--0-o||
||------------------|---------------------||
|
|
|   E E E E E E E E   E E E  Q   E  E  E  8x
||------------------|---------------------||
||o-----------------|--------------------o||
||------------------|---------------------||
||------------------|-------10--10-10-10--||
||o-----------------|--------------------o||
||--4-5-5-6-5-5-5-6-|-5-5-5--8---8--8--8--||


    E E E E E E E E   E E E Q  E E E  4x
||------------------|-----------------||
||o-----------------|----------------o||
||------------------|-----------------||
||--6-7-7-8-7-7-7-8-|-7-7-7-----------||
||o-----0-0-0-0-0-0-|-0-0-0-6--6-6-6-o||
||------------------|-------4--4-4-4--||
|
|   E E E E E E E E   E E E Q  E E E  4x
||------------------|-----------------||
||o-----------------|----------------o||
||------------------|-----------------||
||------------------|-----------------||
||o-----------------|-------6--6-6-6-o||
||--4-5-5-6-5-5-5-6-|-5-5-5-4--4-4-4--||


    E E E E E E E E   E E E  Q   E  E  E  8x
||------------------|---------------------||
||o-----------------|--------------------o||
||------------------|---------------------||
||--6-7-7-8-7-7-7-8-|-7-7-7-10--10-10-10--||
||o-0-0-0-0-0-0-0-0-|-0-0-0--0---0--0--0-o||
||------------------|---------------------||
|
|   E E E E E E E E   E E E  Q   E  E  E  8x
||------------------|---------------------||
||o-----------------|--------------------o||
||------------------|---------------------||
||------------------|-------10--10-10-10--||
||o-----------------|--------------------o||
||--4-5-5-6-5-5-5-6-|-5-5-5--8---8--8--8--||


    E E E E E E E E   E E E Q  E E E  4x
||------------------|-----------------||
||o-----------------|----------------o||
||------------------|-----------------||
||--6-7-7-8-7-7-7-8-|-7-7-7-----------||
||o-0-0-0-0-0-0-0-0-|-0-0-0-6--6-6-6-o||
||------------------|-------4--4-4-4--||
|
|   E E E E E E E E   E E E Q  E E E  4x
||------------------|-----------------||
||o-----------------|----------------o||
||------------------|-----------------||
||------------------|-----------------||
||o-----------------|-------6--6-6-6-o||
||--4-5-5-6-5-5-5-6-|-5-5-5-4--4-4-4--||


  W          +W           E E E E E E E E   E E E  E  E  E  E  E
|----------|------------|-----------------|----------------------|
|----------|------------|-----------------|----------------------|
|----------|------------|-----------------|----------------------|
|----------|------------|-----------------|----------------------|
|-7--------|-(7)--------|-6-6-6-8---7---8-|---7---10-10-10-10-10-|
|-5--------|-(5)--------|-4-4-4-6---5---6-|---5----8--8--8--8--8-|


    E E E E E E E E   E E E  E  E  E  E  E     E E E E H      W
||------------------|-----------------------||--------------|------|
||o-----------------|----------------------o||--------------|------|
||------------------|-----------------------||--------------|------|
||------------------|-----------------------||--------------|------|
||o-6-6-6-8---7---8-|---7---10-10-10-10-10-o||-6-6-6-8------|------|
||--4-4-4-6---5---6-|---5----8--8--8--8--8--||-4-4-4-6------|------|


    E E E E E E E E   E E E  E  E  E  E  E  4x
||------------------|-----------------------||
||o-----------------|----------------------o||
||------------------|-----------------------||
||------------------|-----------------------||
||o-6-6-6-8---7---8-|---7---10-10-10-10-10-o||
||--4-4-4-6---5---6-|---5----8--8--8--8--8--||


     E  E  E  E  E E  E  E     E  E  E   E    E   E  E  E
||-------------------------|------------------------------|
||o------------------------|------------------------------|
||-------------------------|------------------------------|
||-------------------------|------------------------------|
||o--6--6--6--8----7-----8-|------7-----10---10--10-10-10-|
||---4--4--4--6----5-----6-|------5------8----8---8--8--8-|
|
|   Gtr II
|    E  E  E  Q.      E  E    +Q     E   E   +H
||--17p14----14---------14-|-(14)-------15--(15)----------|
||o-------18---------18----|--------18-(18)---------------|
||-------------------------|------------------------------|
||-------------------------|------------------------------|
||o------------------------|------------------------------|
||-------------------------|------------------------------|

[ Tab from: http://www.guitartabs.cc/tabs/s/sepultura/buried_words_tab.html ]
   E  E  E  E  E E  E  E     E  E  E   E    E   E  E  E
|------------------------|--------------------------------||
|------------------------|-------------------------------o||
|------------------------|--------------------------------||
|------------------------|--------------------------------||
|--6--6--6--8----7-----8-|------7-----10---10--10-10-10--o||
|--4--4--4--6----5-----6-|------5------8----8---8--8--8---||
|
|  E  E  E  Q.      E  E    +Q     E   E   +H
|-17p14----14---------14-|-(14)-------16--(16)------------||
|-------18---------18----|--------18-(18)----------------o||
|------------------------|--------------------------------||
|------------------------|--------------------------------||
|------------------------|-------------------------------o||
|------------------------|--------------------------------||


    E E E E E E E E   E E E Q  E E E  4x
||------------------|-----------------||
||o-----------------|----------------o||
||------------------|-----------------||
||--6-7-7-8-7-7-7-8-|-7-7-7-----------||
||o-0-0-0-0-0-0-0-0-|-0-0-0-6--6-6-6-o||
||------------------|-------4--4-4-4--||
|
|   Gtr I
|   E E E E E E E E   E E E Q  E E E  4x
||------------------|-----------------||
||o-----------------|----------------o||
||------------------|-----------------||
||------------------|-----------------||
||o-----------------|-------6--6-6-6-o||
||--4-5-5-6-5-5-5-6-|-5-5-5-4--4-4-4--||


   E     E E E E E E E     E  E E  E   E   E  E  E
|----------------------|---------------------------|
|----------------------|---------------------------|
|----------------------|---------------------------|
|----------------------|---------------------------|
|--6-----6-6-8---7---8-|------7---10--10--10-10-10-|
|--4-----4-4-6---5---6-|------5----8---8---8--8--8-|
|
| 
|  W                       H           H
|----------------------|---------------------------|
|-16-------------------|--17----------16-----------|
|-18b20================|=(18)--------(18)----------|
|----------------------|---------------------------|
|----------------------|---------------------------|
|----------------------|---------------------------|


   E     E E E E E E E     E  E E  E   E   E  E  E
|----------------------|---------------------------|
|----------------------|---------------------------|
|----------------------|---------------------------|
|----------------------|---------------------------|
|--6-----6-6-8---7---8-|------7---10--10--10-10-10-|
|--4-----4-4-6---5---6-|------5----8---8---8--8--8-|
|
|  W                       H           H
|----------------------|---------------------------|
|-16-------------------|--16----------17-----------|
|-18b20================|=(18)--------(18)----------|
|----------------------|---------------------------|
|----------------------|---------------------------|
|----------------------|---------------------------|


  E     E     E     E     E     E     E     E
|-------------------------------------------------|
|-------------------------------------------------|
|-------------------------------------------------|
|-------------------------------------------------|
|-6-----6-----6-----8-----------7-----------8-----|
|-4-----4-----4-----6-----------5-----------6-----|
|
| |----5----| |----5----| |----5----| |----5----|
| S S S   S S S S S   S S S S S   S S S S S   S S
|-------------------------------------------------|
|-5-5-5---5-5-5-5-5---5-5-5-5-5---5-5-5-5-5---5-5-|
|-------------------------------------------------|
|-------------------------------------------------|
|-------------------------------------------------|
|-------------------------------------------------|


  E     E     E      E      E      E      E      E
|-------------------------------------------------------|
|-------------------------------------------------------|
|-------------------------------------------------------|
|-------------------------------------------------------|
|-------7-----------10-----10-----10-----10-----10------|
|-------5------------8------8------8------8------8------|
|
| |----5----| |----5-----|  |----5-----|  |----5-----|
| S S S   S S S S S    S S  S S S    S S  S S S    S S
|-------------------------------------------------------|
|-5-5-5---5-5-5-5-5----5-5--5-5-5----5-5--5-5-5----5-5--|
|-------------------------------------------------------|
|-------------------------------------------------------|
|-------------------------------------------------------|
|-------------------------------------------------------|


  |---5---| |---5---| |---5---| |---5---|
  S S S S S S S S S S S S S S S S S S S S
|-----------------------------------------|
|-----------------------------------------|
|-----------------------------------------|
|-----------------------------------------|
|-----------------------------------------|
|-4-4-4-4-4-4-4-4-4-4-4-4-4-4-4-4-4-4-4-4-|
|
| |---5---| |---5---| |---5---| |---5---|
| S S S S S S S S S S S S S S S S S S S S
|-----------------------------------------|
|-4-4-4-4-4-4-4-4-4-4-4-4-4-4-4-4-4-4-4-4-|
|-----------------------------------------|
|-----------------------------------------|
|-----------------------------------------|
|-----------------------------------------|


    |------5------| |------5------|  |------5------|  |------5------|
    S     S S   S S S     S S   S S  S     S S   S S  S     S S   S S
|-----------------------------------------------------------------------|
|-----------------------------------------------------------------------|
|-----------------------------------------------------------------------|
|-----------------------------------------------------------------------|
|-----------------------------------------------------------------------|
|---4-----4-4---4-4-4-----4-4---4-4--4-----4-4---4-4--4-----4-4---4-4---|
|
|   \0.5/     /     \0.75     /      \0.25     /      \0.25
|   E         E     E         E      E         E      E         E
|-----------------------------------------------------------------------|
|-/11S========5S====9S========6S====10S========5S====11S========4-------|
|-----------------------------------------------------------------------|
|-----------------------------------------------------------------------|
|-----------------------------------------------------------------------|
|-----------------------------------------------------------------------|


  Q  H.
|----------*|
|----------*|
|----------*|
|----------*|
|-6--------*|
|-4--------*|


Duration Legend
---------------
W - whole; H - half; Q - quarter; E - 8th; S - 16th; T - 32nd; X - 64th; a - acciaccatura
+ - note tied to previous; . - note dotted; .. - note double dotted
Uncapitalized letters represent notes that are staccato (1/2 duration)
Irregular groupings are notated above the duration line
Duration letters will always appear directly above the note/fret number it represents 

the duration for. Duration letters with no fret number below them represent rests.  

Multi-bar rests are notated in the form Wxn, where n is the number of bars to rest for.  

Low melody durations appear below the staff

Tablature Legend
----------------
 h   - hammer-on
 p   - pull-off
 b   - bend
 pb  - pre-bend
 r   - bend release (if no number after the r, then release immediately)
 /\  - slide into or out of (from/to "nowhere")
 s   - legato slide
 S   - shift slide
  - natural harmonic
[n]  - artificial harmonic
n(n) - tapped harmonic
 ~   - vibrato
 tr  - trill
 T   - tap
 TP  - trem. picking
 PM  - palm muting
\n/  - tremolo bar dip; n = amount to dip
 \n  - tremolo bar down
 n/  - tremolo bar up
/n\  - tremolo bar inverted dip
 =   - hold bend; also acts as connecting device for hammers/pulls
 <>  - volume swell (louder/softer)
 x   - on rhythm slash represents muted slash
 o   - on rhythm slash represents single note slash

Misc Legend
-----------
 |  - bar
||  - double bar
||o - repeat start
o|| - repeat end
*|  - double bar (ending)
 :  - bar (freetime)
 $  - Segno
 &  - Coda
Tempo markers -  = BPM(8/16=s8/s16), where s8 = swing 8ths, s16 = swing 16ths
Comments