Sepultura - Born Stubborn Chords & Tabs

 

Born Stubborn Chords & Tabs

Sepultura Chords & Tabs

Version: 2 Type: Bass Tab 0 ratings
1 star 2 stars 3 stars 4 stars 5 stars
comments

Born Stubborn Bass Tab

   
Song: Born Stubborn
Artist: Sepultura
Album: Roots
Tabbed By: Mark Valencia

This song is a basic heavy metal bass line to play,
but i enjoy playing it in a band, so learn it!

Drop E to D   (D,A,D,G)

Beginning Riff:

G||------------------||
D||------------------||
A||------------------|| 
D||-0-0-0-0--0-0-0---|| x8

Next Riff:

G||-------------------------||
D||-------------------------||
A||-------------------------||
D||-0-0-0-0-0-0-0-0-4-5-7---|| x3

G||-------------------------||
D||-------------------------||
A||-------------------------||
D||-0-0-0-0-0-0-0-0-4-1-0---||x1 after the riff above

Bridge Before Chorus:

G||---------------------------------------||
D||---------------------------------------||
A||---------------------------------------||
D||-0-0-0-0-0-0-0-00-0-0-0-0-0-0-0-0-0-0--|| x1

Chorus:

G||--------------||
D||--------------||
A||--------------||
D||-0-00-0-4-5---|| x8

Bridge:

G||----------------------||
D||----------------------||
A||----------------------||
D||-0-0-0-0-0-0-1-3-4-3--|| x4

Chorus:
[ Tab from: http://www.guitartabs.cc/tabs/s/sepultura/born_stubborn_btab_ver_2.html ]
G||--------------||
D||--------------||
A||--------------||
D||-0-00-0-4-5---|| x8

Break:

G||-------------------------||
D||-------------------------||
A||-------------------------||
D||-1-0---1-0---1-0---1-0---|| x1

Bridge:

G||----------------------------||
D||----------------------------||
A||----------------------------||
D||-0-0-0-0-0-0-0-00-0-0-0-0---|| x1

Chorus:

G||-------------||
D||-------------||
A||-------------||
D||-0-00-0-4-5--|| x8

Break:

G||-------------------------||
D||-------------------------||
A||-------------------------||
D||-1-0---1-0---1-0---1-0---|| x1

Bridge:

G||-----------------||
D||-----------------||
A||-----------------||
D||-1-0---1-3-4-3---|| x12

Break:

G||------------------||
D||------------------||
A||------------------||
D||-0-0-0-0-0-0-00---|| x8

Chorus:

G||-------------||
D||-------------||
A||-------------||
D||-0-00-0-4-5--|| x8

Break:

G||---------------------------------------||
D||---------------------------------------||
A||---------------------------------------||
D||-1-0---1-0---6-0-6--1-0---1-0---6-0-6--|| x1

Last Riff:

G||----------------||
D||----------------||
A||----------------||
D||-0-00-0-6-0-6---|| x8

                       Your Done!
Comments