Sepultura - Beneath The Remains Chords & Tabs

 

Beneath The Remains Chords & Tabs

Sepultura Chords & Tabs

Version: 3 Type: Tab 0 ratings
1 star 2 stars 3 stars 4 stars 5 stars
comments

Beneath The Remains Tab

   
#----------------------------------PLEASE NOTE---------------------------------#
#This file is the author's own work and represents their interpretation of the #
#song. You may only use this file for private study, scholarship, or research. #
#------------------------------------------------------------------------------##

                               BENEATH THE REMAINS
                            As recorded by Sepultura
                    (From the 1989 Album BENEATH THE REMAINS)

Words by Max Cavalera and Andreas Kisser

Music by Max Cavalera, Andreas Kisser, Igor Cavalera, and Paulo Jr.


Gtr I (E A D G B E) - 'Rhythm Guitar 1'
Gtr II (E A D G B E) - 'Rhythm Guitar 2'
Gtr III (E A D G B E) - 'Lead Guitar'
Gtr IV (E A D G B E) - 'Acoustic Guitar'

 Intro
  Slowly Q=80
  Amadd9                          G6
 4/4
  Gtr IV
  S S S S S S S S S S S S S S E   S S S S +E  S S S S S S +S  E S
|---------0---------------0-----|-------------0---------0-(0)------|
|-------0---0-----------0---0---|-----0---------0-----3-------3----|
|-----5-------5-------5-------5-|---4---4-(4)-------4-----------0--|
|---7-----------7---7-----------|-5---------------5----------------|
|-0---------------0-------------|----------------------------------|
|-------------------------------|----------------------------------|


  Amadd9                            G6
  S S S S S S S S S S S S S S S S   S S S S +E  S S S S S S +S  E S
|---------0---------------0-------|-------------0---------0-(0)-----|
|-------0---0-----------0---0-----|-----0---------0-----3-------3---|
|-----5-------5-------5-------5---|---4---4-(4)-------4-----------0-|
|---7-----------7---7-----------7-|-5---------------5---------------|
|-0---------------0---------------|---------------------------------|
|---------------------------------|---------------------------------|


  Fadd9
  S S S S S S S S S S S S S S S S
|---------0---------------0---------|
|-------6---6-----------6---6-------|
|-----0-------0-------0-------0-----|
|---7-----------7---7---------------|
|-8---------------8-------------8---|
|-----------------------------------|


  Em
  S S S S +E  S S S S S S +E  S S
|-------0-(0)-----------0-(0)-----|
|-------0-(0)-----------0-(0)-----|
|-------------0-------0-----------|
|-----9-------------------------0-|
|---7-----------7---7---------7---|
|-0---------------0---------------|


  Fadd9                             Em
  S S S S S S S S S S S S S S S S   S S S S +E  S S S S S S +Q
|---------0---------------0-------|-------0-(0)-----------0-(0)----||
|-------6---6-----------6---6-----|-------0-(0)-0---------0-(0)----||
|-----0-------0-------0-------0---|---------------0-------0-(0)----||
|---7-----------7---7-------------|-----9---------------9----------||
|-8---------------8-------------8-|---7---------------7------------||
|---------------------------------|-0---------------0--------------||


    Am7
    S S S S S S S S S S S S S S S S
||----------0---------------0-------|
||o-------8---8-----------8---8-----|
||------5-------5-------5-------5---|
||----7-----------7---7-----------7-|
||o-0---------------0---------------|
||----------------------------------|


  Eb                                  Amadd9
                                     2/4               4/4
                                                        >
  S S S S +S  E S S S S S +S  E S     S S S S S S S S   W
|----------------------------------||-------------0---|------||
|-------4-(4)-----------4-(4)-----o||-----------0---0-|------||
|-----3-------3-------3-------3----||-----5---5-------|------||
|---5-----------5---5-----------5--||---7---7---------|------||
|-6---------------6---------------o||-0---------------|-0----||
|----------------------------------||-----------------|------||


  Faster Q=240
  G#5           N.C.
  Gtrs I, II
                PM--------------------|       PM--------------------|
  Q  Q  Q  Q    S S S S S S S S S S S S E E   S S S S S S S S S S S S E E
|-------------|-----------------------------|------------------------------|
|-------------|-----------------------------|------------------------------|
|-------------|-----------------------------|------------------------------|
|-------------|-------------------------3---|-------------------------3----|
|-6--6--6--6--|---------------------------2-|---------------------------2--|
|-4--4--4--4--|-1-1-1-1-1-1-1-1-1-1-1-1-----|-1-1-1-1-1-1-1-1-1-1-1-1------|


                                G#5             N.C.
  PM--------------------|                       PM--------------------|
  S S S S S S S S S S S S E E   Q  Q  Q  Q      S S S S S S S S S S S S E E
|-----------------------------|-------------||-------------------------------|
|-----------------------------|-------------||o------------------------------|
|-----------------------------|-------------||-------------------------------|
|-------------------------3---|-------------||--------------------------3----|
|---------------------------2-|-6--6--6--6--||o---------------------------2--|
|-1-1-1-1-1-1-1-1-1-1-1-1-----|-4--4--4--4--||--1-1-1-1-1-1-1-1-1-1-1-1------|


  PM--------------------|       PM--------------------|
  S S S S S S S S S S S S E E   S S S S S S S S S S S S E E
|-----------------------------|-----------------------------|
|-----------------------------|-----------------------------|
|-----------------------------|-----------------------------|
|-------------------------3---|-------------------------3---|
|---------------------------2-|---------------------------2-|
|-1-1-1-1-1-1-1-1-1-1-1-1-----|-1-1-1-1-1-1-1-1-1-1-1-1-----|


  1.,2.,3.                           4.
                                      E5     G#5
  PM----------------------------|
  S S S S S S S S S S S S S S S S     E Q.   E Q.
|----------------------------------||---------------||
|---------------------------------o||---------------||
|----------------------------------||---------------||
|----------------------------------||---------------||
|---------------------------------o||-2-2----6-6----||
|-1-1-1-1-1-1-1-1-0-0-0-0-0-0-0-0--||-0-0----4-4----||


   1st, 2nd, and 3rd Verses
    $
    N.C.
    PM--------------------|
    S S S S S S S S S S S S E E
||------------------------------|
||o-----------------------------|
||------------------------------|
||--------------------------3---|
||o---------------------------2-|
||--1-1-1-1-1-1-1-1-1-1-1-1-----|


  PM--------------------|       PM--------------------|
  S S S S S S S S S S S S E E   S S S S S S S S S S S S E E
|-----------------------------|-------------------------------|
|-----------------------------|-------------------------------|
|-----------------------------|-------------------------------|
|-------------------------3---|-------------------------3-----|
|---------------------------2-|---------------------------2---|
|-1-1-1-1-1-1-1-1-1-1-1-1-----|-1-1-1-1-1-1-1-1-1-1-1-1-------|


  PM-------------------------------
  S S S S S S S S S S S S S S S S
|---------------------------------|
|---------------------------------|
|---------------------------------|
|---------------------------------|
|---------------------------------|
|-1-1-1-1-1-1-1-1-0-0-0-0-0-0-0-0-|


 -----------------------|       PM--------------------|
  S S S S S S S S S S S S E E   S S S S S S S S S S S S E E
|-----------------------------|------------------------------|
|-----------------------------|------------------------------|
|-----------------------------|------------------------------|
|-------------------------3---|-------------------------3----|
|---------------------------2-|---------------------------2--|
|-1-1-1-1-1-1-1-1-1-1-1-1-----|-1-1-1-1-1-1-1-1-1-1-1-1------|


  PM--------------------|       PM-------------------------------
  S S S S S S S S S S S S E E   S S S S S S S S S S S S S S S S
|-----------------------------|---------------------------------|
|-----------------------------|---------------------------------|
|-----------------------------|---------------------------------|
|-------------------------3---|---------------------------------|
|---------------------------2-|---------------------------------|
|-1-1-1-1-1-1-1-1-1-1-1-1-----|-1-1-1-1-1-1-1-1-0-0-0-0-0-0-0-0-|


 -----------------------|
  S S S S S S S S S S S S E E
|------------------------------|
|------------------------------|
|------------------------------|
|-------------------------3----|
|---------------------------2--|
|-1-1-1-1-1-1-1-1-1-1-1-1------|


  PM--------------------|       PM--------------------|
  S S S S S S S S S S S S E E   S S S S S S S S S S S S E E
|-----------------------------|-----------------------------|
|-----------------------------|-----------------------------|
|-----------------------------|-----------------------------|
|-------------------------3---|-------------------------3---|
|---------------------------2-|---------------------------2-|
|-1-1-1-1-1-1-1-1-1-1-1-1-----|-1-1-1-1-1-1-1-1-1-1-1-1-----|


  PM----------------------------|
  S S S S S S S S S S S S S S S S
|----------------------------------|
|----------------------------------|
|----------------------------------|
|----------------------------------|
|----------------------------------|
|-1-1-1-1-1-1-1-1-0-0-0-0-0-0-0-0--|


  PM--------------------|
  S S S S S S S S S S S S E E
|-----------------------------|
|-----------------------------|
|-----------------------------|
|-------------------------3---|
|---------------------------2-|
|-1-1-1-1-1-1-1-1-1-1-1-1-----|


  PM--------------------|       PM--------------------|
  S S S S S S S S S S S S E E   S S S S S S S S S S S S E E
|-----------------------------|-----------------------------|
|-----------------------------|-----------------------------|
|-----------------------------|-----------------------------|
|-------------------------3---|-------------------------3---|
|---------------------------2-|---------------------------2-|
|-1-1-1-1-1-1-1-1-1-1-1-1-----|-1-1-1-1-1-1-1-1-1-1-1-1-----|


  PM--------------------------------
  S S S S S S S S S S S S S S S S
|---------------------------------||
|---------------------------------||
|---------------------------------||
|---------------------------------||
|---------------------------------||
|-1-1-1-1-1-1-1-1-0-0-0-0-0-0-0-0-||


 Chorus
                          F5   N.C.
 -----------------------|      PM--------------------|
  S S S S S S S S S S S S Q    S S S S S S S S S S S S E E
|----------------------------|------------------------------|
|----------------------------|------------------------------|
|----------------------------|------------------------------|
|----------------------------|---------------------------6--|
|-------------------------3--|-------------------------7----|
|-0-0-0-0-0-0-0-0-0-0-0-0-1--|-0-0-0-0-0-0-0-0-0-0-0-0------|


                        F5   N.C.
    PM----------------|      PM------------|
  E S S S S S S S S S S Q    S S S S S S S S E E E E
|--------------------------|-------------------------|
|--------------------------|-------------------------|
|--------------------------|-------------------------|
|--------------------------|-----------------6---7---|
|-7---------------------3--|-------------------5---5-|
|---0-0-0-0-0-0-0-0-0-0-1--|-0-0-0-0-0-0-0-0---------|


                          F5
  PM--------------------|
  S S S S S S S S S S S S Q
|----------------------------|
|----------------------------|
|----------------------------|
|----------------------------|
|-------------------------3--|
|-0-0-0-0-0-0-0-0-0-0-0-0-1--|


  N.C.
  PM--------------------|
  S S S S S S S S S S S S E E
|-----------------------------|
|-----------------------------|
|-----------------------------|
|---------------------------6-|
|-------------------------7---|
|-0-0-0-0-0-0-0-0-0-0-0-0-----|


                            1.
                        F5   N.C.
    PM----------------|      PM------------|
  E S S S S S S S S S S Q    S S S S S S S S E E E E
|--------------------------|-------------------------|
|--------------------------|-------------------------|
|--------------------------|-------------------------|
|--------------------------|-----------------6---7---|
|-7---------------------3--|-------------------5---5-|
|---0-0-0-0-0-0-0-0-0-0-1--|-0-0-0-0-0-0-0-0---------|


  G#5           E5         G#5        E5
  Q  Q  Q  Q    W          W          W
|-------------|----------|----------|------|
|-------------|----------|----------|------|
|-------------|----------|----------|------|
|-------------|----------|----------|------|
|-6--6--6--6--|-2--------|-6--------|-2----|
|-4--4--4--4--|-0--------|-4--------|-0----|


                                 To Coda
  G#5           E5         G#5        E5
  Q  Q  Q  Q    W          W          W
|-------------|----------|----------|-------|
|-------------|----------|----------|-------|
|-------------|----------|----------|-------|
|-------------|----------|----------|-------|
|-6--6--6--6--|-2--------|-6--------|-2-----|
|-4--4--4--4--|-0--------|-4--------|-0-----|


                                                Interlude
                     2.                       Slower Q=192
                      N.C.                       F5          B5
  PM--------------------------------|            PM--------|
  E Q  E +E  Q  E     S S S S S S S S E E E E    E E E E E E Q
|------------------||-------------------------||----------------||
|-----------------o||-------------------------||----------------||
|------------------||-------------------------||----------------||
|------------------||-----------------6---7---||-------------4--||
|-2-2--2-(2)-2--2-o||-------------------5---5-||-3-3-3-3-3-3-2--||
|-0-0--0-(0)-0--0--||-0-0-0-0-0-0-0-0---------||-1-1-1-1-1-1----||


    F5                            B5     F5
    PM--------------------------|        PM------------|
    E E E E E E E E   E E E E E E Q   3x E E E E E E E E
||------------------|-----------------||-----------------||
||o-----------------|----------------o||-----------------||
||------------------|-----------------||-----------------||
||------------------|-------------4---||-----------------||
||o-3-3-3-3-3-3-3-3-|-3-3-3-3-3-3-2--o||-3-3-3-3-3-3-3-3-||
||--1-1-1-1-1-1-1-1-|-1-1-1-1-1-1-----||-1-1-1-1-1-1-1-1-||


                     1.,2.,3.            4.
    N.C.                                                    F5          B5
    PM--------|         PM--|               PM--|           PM--------|
    E E E E E E E E   E E E E E E E E     E E E E E E E E   E E E E E E Q
||------------------|------------------||-----------------|-----------------||
||o-----------------|-----------------o||-----------------|-----------------||
||------------------|------------------||-----------------|-----------------||
||----------------6-|---------6---7----||---------6---7---|-------------4---||
||o-------------7---|-7---------5---5-o||-7---------5---5-|-3-3-3-3-3-3-2---||
||--0-0-0-0-0-0-----|---0-0-0----------||---0-0-0---------|-1-1-1-1-1-1-----||


  F5                            B5   F5                F5          B5
  PM--------------------------|      PM--------------------------|
  E E E E E E E E   E E E E E E Q    E E E E E E E E   E E E E E E Q
|-----------------|----------------|-----------------|----------------|
|-----------------|----------------|-----------------|----------------|
|-----------------|----------------|-----------------|----------------|
|-----------------|-------------4--|-----------------|-------------4--|
|-3-3-3-3-3-3-3-3-|-3-3-3-3-3-3-2--|-3-3-3-3-3-------|-3-3-3-3-3-3-2--|
|-1-1-1-1-1-1-1-1-|-1-1-1-1-1-1----|-1-1-1-1-1-0-0-0-|-1-1-1-1-1-1----|


  F5                            B5   F5                B5
  PM--------------------------|      PM------------|
  E E E E E E E E   E E E E E E Q    E E E E E E E E   W
|-----------------|----------------|-----------------|------|
|-----------------|----------------|-----------------|------|
|-----------------|----------------|-----------------|------|
|-----------------|-------------4--|-----------------|-4----|
|-3-3-3-3-3-3-3-3-|-3-3-3-3-3-3-2--|-3-3-3-3-3-3-3-3-|-2----|
|-1-1-1-1-1-1-1-1-|-1-1-1-1-1-1----|-1-1-1-1-1-1-1-1-|------|


  C5               F5                                 B5
                      PM--------------------------|
  H..       +E     Q  E E E E E E   E E E E E E E E   W
|----------------|----------------|-----------------|------||
|----------------|----------------|-----------------|------||
|----------------|----------------|-----------------|------||
|-5---------(5)\-|----------------|-----------------|-4----||
|-3---------(3)\-|-3--3-3-3-3-3-3-|-3-3-3-3-3-3-3-3-|-2----||
|----------------|-1--1-1-1-1-1-1-|-1-1-1-1-1-1-1-1-|------||


    Faster Q=240
    N.C.
    E S S S S S S E S S S S S S   E S S S S S S E E E E
||------------------------------|-----------------------|
||o-----------------------------|-----------------------|
||------------------------------|-----------------------|
||------------------------------|-----------------------|
||o-----------------------------|-----------------------|
||--1-1-1-1-1-1-1-1-1-1-1-1-1-1-|-1-1-1-1-1-1-1-1-2-2-2-|


  E S S S S S S E S S S S S S   S S S S S S S S S S S S S S S S   4x
|-----------------------------|-----------------------------------||
|-----------------------------|----------------------------------o||
|-----------------------------|-----------------------------------||
|-----------------------------|-----------------------------------||
|-----------------------------|-2-2-2-2-2-2-2-2------------------o||
|-1-1-1-1-1-1-1-1-1-1-1-1-1-1-|-----------------4-4-4-4-4-4-4-4---||


  F5N.C.
  Gtr I
  E S S S S S S E S S S S S S   E S S S S S S E E E E
|-----------------------------|-----------------------|
|-----------------------------|-----------------------|
|-----------------------------|-----------------------|
|-----------------------------|-----------------------|
|-----------------------------|-----------------------|
|-1-1-1-1-1-1-1-1-1-1-1-1-1-1-|-1-1-1-1-1-1-1-1-2-2-2-|
|
| Gtr II
| E E   Q       H               H             E E E E
|-----------------------------|-----------------------|
|-----------------------------|-----------------------|
|-----------------------------|-----------------------|
|-----------------------------|-----------------------|
|-3---------------------------|-----------------------|
|-1---------------------------|---------------1-2-2-2-|


  F5N.C.
  E S S S S S S E S S S S S S   S S S S S S S S S S S S S S S S
|-----------------------------|----------------------------------||
|-----------------------------|----------------------------------||
|-----------------------------|----------------------------------||
|-----------------------------|----------------------------------||
|-----------------------------|-2-2-2-2-2-2-2-2------------------||
|-1-1-1-1-1-1-1-1-1-1-1-1-1-1-|-----------------4-4-4-4-4-4-4-4--||
|
| E E   Q       H               S S S S S S S S S S S S S S S S
|-----------------------------|----------------------------------||
|-----------------------------|----------------------------------||
|-----------------------------|----------------------------------||
|-----------------------------|----------------------------------||
|-3---------------------------|-2-2-2-2-2-2-2-2------------------||
|-1---------------------------|-----------------4-4-4-4-4-4-4-4--||


 Guitar Solo
  N.C.
  Gtr III
  E    Q.           E    Q.              E   Q.            E    Q.
|-------------------------------------|--------------------------------|
|-------------------------------------|-h5b6r0------------h7b9r========|
|-6b7rp0------------7b8rp0------------|------------------------h6------|
|-------------------------------------|--------------------------------|
|-------------------------------------|--------------------------------|
|-------------------------------------|--------------------------------|
|
| Gtrs I, II
| E    S  S S S S S E    S  S S S S S    E   S  S S S S S  E    E  E E
|-------------------------------------|--------------------------------|
|-------------------------------------|--------------------------------|
|-------------------------------------|--------------------------------|
|-------------------------------------|--------------------------------|
|-------------------------------------|--------------------------------|
|-1----1--1-1-1-1-1-1----1--1-1-1-1-1-|--1---1--1-1-1-1-1--1----2--2-2-|


   E     Q.             E      Q.
|-------------------------------------------|
|-h9b12r==============h12b16r===============|
|-------h6-------------------h10------------|
|-------------------------------------------|
|-------------------------------------------|
|-------------------------------------------|
|
|  E     S  S S S S S   E      S  S S S S S
|-------------------------------------------|
|-------------------------------------------|
|-------------------------------------------|
|-------------------------------------------|
|-------------------------------------------|
|--1-----1--1-1-1-1-1---1------1--1-1-1-1-1-|

[ Tab from: http://www.guitartabs.cc/tabs/s/sepultura/beneath_the_remains_tab_ver_3.html ]
                                              \0.5/           \0.5/              \0.5/
    ~~~~~~~~~~~~
    E       +Q.           E   Q        E      E      Q        E        +E   E    E        E
|------------------------------------------|--------------------------------------------------|
|-h12b16---(12)-----------9s==xS======11h==|=15p====11h======15-------(15)p11h==15p======11h==|
|------------------------------------------|--------------------------------------------------|
|------------------------------------------|--------------------------------------------------|
|------------------------------------------|--------------------------------------------------|
|------------------------------------------|--------------------------------------------------|
|
|   S    S   S  S S S S S S S S S S S  S S    E      S S S S  S     S   E   S S  S     S  S S
|------------------------------------------|--------------------------------------------------|
|------------------------------------------|--------------------------------------------------|
|------------------------------------------|--------------------------------------------------|
|------------------------------------------|--------------------------------------------------|
|---2----2---2--2-2-2-2-2------------------|--------------------------------------------------|
|-------------------------4-4-4-4-4-4--4-4-|--1------1-1-1-1--1-----1---1---1-1--1-----1--1-1-|


   \0.5/           \0.5/            \0.5/
   E      Q        E        +E   E  E      E
|---------------------------------------------|
|-15p====11h======15-------(15)p11h13---------|
|-----------------------------------------11--|
|---------------------------------------------|
|---------------------------------------------|
|---------------------------------------------|
|
|  E      S S S S  S     S   E   E  E      E
|---------------------------------------------|
|---------------------------------------------|
|---------------------------------------------|
|---------------------------------------------|
|---------------------------------------------|
|--1------1-1-1-1--1-----1---1---2--2------2--|


   \0.5/              \0.5/
                                                         ~               TP
   E      +E     E    E       Q      E   E      E    E   H               Q
|--------------------------------------------|------------------------------------|
|--------------------12p======8--------------|---------------------------x/-------|
|-13-----(13)s==10------------------10---8---|-----------9------------------------|
|--------------------------------------------|-11---10----------------------------|
|--------------------------------------------|------------------------------------|
|--------------------------------------------|------------------------------------|
|
|  E       S  S  S S  S     S E S S  S S S S    S S  S S S S S S S S S S S  S S S
|--------------------------------------------|------------------------------------|
|--------------------------------------------|------------------------------------|
|--------------------------------------------|------------------------------------|
|--------------------------------------------|------------------------------------|
|--------------------------------------------|--2-2--2-2-2-2-2-2------------------|
|--1-------1--1--1-1--1-----1-1-1-1--1-1-1-1-|-------------------4-4-4-4-4--4-4-4-|


                          |--3--|              |---3---|
   S  S  S S  E    S  S  +S   S S  E    S  S  +S   S   S
|-10-10-10p8------10h12-(12)-10p8------10h12-(12)-10p==8----|
|------------12-------------------12------------------------|
|-----------------------------------------------------------|
|-----------------------------------------------------------|
|-----------------------------------------------------------|
|-----------------------------------------------------------|
|
|  E     S S  S S  S  S   E        S S  S  S   S     S
|-----------------------------------------------------------|
|-----------------------------------------------------------|
|-----------------------------------------------------------|
|-----------------------------------------------------------|
|-----------------------------------------------------------|
|--1-----1-1--1-1--1--1---1--------1-1--1--1---1-----1------|


            |---3---|
   E S  S  +S   S   S  E    E  E  E  S  S
|----9-12-(12)-10p==8------10-12----10-12h|
|-12------------------12---------12-------|
|-----------------------------------------|
|-----------------------------------------|
|-----------------------------------------|
|-----------------------------------------|
|
|  E S  S   S     S    S S  E  E  E  E
|-----------------------------------------|
|-----------------------------------------|
|-----------------------------------------|
|-----------------------------------------|
|-----------------------------------------|
|--1-1--1---1-----1----1-1--1--2--2--2----|


                               PM---|                   ~~
               |---3---|
   S  S  S  S  S  S    S  E    S  S  S  S  S  S  E      H                +Q          Q
|-15p13p12-------------------------------------------|---------------------------------------|
|----------15p13p12-----------------12-15p13p12------|---------------------------------------|
|---------------------15p14------13-------------14---|-14---------------(14)\-------/5-------|
|-----------------------------14---------------------|---------------------------------------|
|----------------------------------------------------|---------------------------------------|
|----------------------------------------------------|---------------------------------------|
|
|  E     S  S  S    S     S S  E     S  S  S  S  S S    S S S S S S S S   S   S S S  S S S S
|----------------------------------------------------|---------------------------------------|
|----------------------------------------------------|---------------------------------------|
|----------------------------------------------------|---------------------------------------|
|----------------------------------------------------|---------------------------------------|
|----------------------------------------------------|--2-2-2-2-2-2-2-2----------------------|
|--1-----1--1--1----1-----1-1--1-----1--1--1--1--1-1-|--------------------4---4-4-4--4-4-4-4-|


   ~~~~~~~~~~~~~~~~~~~~~~~~~~~~~~~~~~~~~~~~~~~~~~~~~~~~~~~~~  PM
   Q.          E     +Q       Q          Q.         E   +Q    Q
|-------------------------------------|---------------------------|
|-------------------------------------|---------------------------|
|-[5]---------[5]---([5])-----5-------|-[5]---------5---(5)---0---|
|-------------------------------------|---------------------------|
|-------------------------------------|---------------------------|
|-------------------------------------|---------------------------|
|
|  E  S S S S  S  S   E   S S S S S S    E  S S S S S S  E  E E E
|-------------------------------------|---------------------------|
|-------------------------------------|---------------------------|
|-------------------------------------|---------------------------|
|-------------------------------------|---------------------------|
|-------------------------------------|---------------------------|
|--1--1-1-1-1--1--1---1---1-1-1-1-1-1-|--1--1-1-1-1-1-1--1--2-2-2-|


                                        \7
   ~~~                                                      ~~~~~
   H.                    +Q            +H                  +H
|-----------------------------------|------------------------------------------||
|-----------------------------------|------------------------------------------||
|-[3]-------------------([3])-------|-([3])---------------([3])----------------||
|-----------------------------------|------------------------------------------||
|-----------------------------------|------------------------------------------||
|-----------------------------------|------------------------------------------||
|
|  E  S S S S S S E S S   S   S S S     S   S S S S S S S   S   S S S S S S S
|-----------------------------------|------------------------------------------||
|-----------------------------------|------------------------------------------||
|-----------------------------------|------------------------------------------||
|-----------------------------------|------------------------------------------||
|-----------------------------------|---2---2-2-2-2-2-2-2----------------------||
|--1--1-1-1-1-1-1-1-1-1---1---1-1-1-|-----------------------4---4-4-4-4-4-4-4--||


    E5
          PM  PM  PM        PM      PM---
    Q   E E E E E E   Q   E E E E E E
||------------------|------------------||
||o-----------------|-----------------o||
||------------------|------------------||
||----------6---9---|---------9-7-6----||
||o-------7---7---8-|-------7-------8-o||
||------------------|------------------||
|
|   Gtrs I, II
|   E E Q   H         E E E E H
||------------------|------------------||
||o-----------------|-----------------o||
||------------------|------------------||
||------------------|------------------||
||o-2-2-------------|-2-2-2-----------o||
||--0-0-------------|-0-0-0------------||


      N.C.
 -------------------|
      E E E E E E E E   E E E E E E E E
|-||------------------|-----------------|
|-||o-----------------|-----------------|
|-||------------------|---------7-------|
|-||------6---9-7-6---|-----6-----9-7-6-|
|-||o-7-7---7-------8-|-7-7---7---------|
|-||------------------|-----------------|
|
|     PM------------------------------|
|     E E E E E E E E   E E E E E E E E
|-||------------------|-----------------|
|-||o-----------------|-----------------|
|-||------------------|-----------------|
|-||------------------|-----------------|
|-||o-----------------|-----------------|
|-||--0-0-0-0-0-0-0-0-|-0-0-0-0-0-0-0-0-|


                   1.
  E E E E E E E E   E E E E E E E E
|-----------------|------------------||
|-----------------|-----------------o||
|-----------------|------------------||
|-----6---9-7-6---|-----6---9-9-7-6--||
|-7-7---7-------8-|-7-7---7---------o||
|-----------------|------------------||
|
| PM-----------------------------------
| E E E E E E E E   E E E E E E E E
|-----------------|------------------||
|-----------------|-----------------o||
|-----------------|------------------||
|-----------------|------------------||
|-----------------|-----------------o||
|-0-0-0-0-0-0-0-0-|-0-0-0-0-0-0-0-0--||


  2.
                                       Bb5   A5
  S S S S S S S S S S S S Q        W
|------------------------------||------------------|
|------------------------------||o-----------------|
|------------------------------||------------------|
|-6-7-8-9----------------------||------------------|
|---------5-6-7-8--------------||o-----------------|
|-----------------4-5-6-7-4\---||------------------|
|
|------------------------------------|   PM|   PM|
| E   E   E   E   E   E   E  E     E E E E E E E E
|------------------------------||------------------|
|------------------------------||o-----------------|
|------------------------------||------------------|
|------------------------------||------------------|
|------------------------------||o-----8-----7-----|
|-0---0---0---0---0---0---0--0-||--0-0-6-0-0-5-0-0-|


                                    1.                   2.
  G5F#5 G5F#5 Bb5            A5      G5F#5 N.C.          G5F#5 N.C.
  Gtrs I, II
  PM--------|      PM|   PM|   PM------|
                                                                     |-3-|
  E E E E E E Q    E E E E E E E E   E E E E E E E E     E E E E E E E E E
|----------------|-----------------|------------------||--------------------||
|----------------|-----------------|-----------------o||--------------------||
|----------------|-----------------|---------3---4-3--||---------3---4p3p2--||
|----------------|-----------------|-------2---2------||-------2---2--------||
|-5-4---5-4---8--|-----8-----7-----|-5s4-------------o||-5s4----------------||
|-3-2-0-3-2-0-6--|-0-0-6-0-0-5-0-0-|-3s2--------------||-3s2----------------||


 Verse
                                                                G5F#G5A5
  PM------|   PM    PM------|   PM    PM------|   PM    PM----|
  E E E E E E E E   E E E E E E E E   E E E E E E E E   E E E E E E E E
|-----------------|-----------------|-----------------|-----------------|
|-----------------|-----------------|-----------------|-----------------|
|-----------------|-----------------|-----------------|-----------------|
|-----------------|-----------------|-----------------|-----------------|
|-----------2---2-|-----------2---2-|-----------2---2-|---------5-4-5-7-|
|-0-0-0-0-0---0---|-0-0-0-0-0---0---|-0-0-0-0-0---0---|-0-0-0-0-3-2-3-5-|


  N.C.
  PM------|   PM    PM------|   PM    PM------|   PM
  E E E E E E E E   E E E E E E E E   E E E E E E E E   E E E E E E E E
|-----------------|-----------------|-----------------|-----------------|
|-----------------|-----------------|-----------------|-----------------|
|-----------------|-----------------|-----------------|---------3---4-3-|
|-----------------|-----------------|-----------------|-------2---2-----|
|-----------2---2-|-----------2---2-|-----------2---2-|-----------------|
|-0-0-0-0-0---0---|-0-0-0-0-0---0---|-0-0-0-0-0---0---|-0-0-0-----------|


                                                                  G5F#G5A5
    PM------|   PM    PM------|   PM    PM------|   PM    PM----|
    E E E E E E E E   E E E E E E E E   E E E E E E E E   E E E E E E E E
||------------------|-----------------|-----------------|-------------------||
||o-----------------|-----------------|-----------------|------------------o||
||------------------|-----------------|-----------------|-------------------||
||------------------|-----------------|-----------------|-------------------||
||o-----------2---2-|-----------2---2-|-----------2---2-|---------5-4-5-7--o||
||--0-0-0-0-0---0---|-0-0-0-0-0---0---|-0-0-0-0-0---0---|-0-0-0-0-3-2-3-5---||


             D.S. al Coda      &
  E5
  Gtr II                       Gtrs I, II
        \6
  H    +H       W              E Q  E +E  Q  E
|-------------|-------------||-----------------||
|-------------|-------------||-----------------||
|-------------|-------------||-----------------||
|-------------|-------------||-----------------||
|-------------|-------------||-2-2--2-(2)-2--2-||
|-0----(0)----|-------------||-0-0--0-(0)-0--0-||
|
| Gtr I
| W             E E Q  H       W
|-------------|-------------||-----------------||
|-------------|-------------||-----------------||
|-------------|-------------||-----------------||
|-------------|-------------||-----------------||
|-2-----------|-2-----------||-----------------||
|-0-----------|-0-----------||-----------------||


    N.C.
    PM---------------------------
    E S S S S S S E S S S S S S
||------------------------------|
||o-----------------------------|
||------------------------------|
||------------------------------|
||o-----------------------------|
||--1-1-1-1-1-1-1-1-1-1-1-1-1-1-|


 1.,2.,3.                   4.
 -----------------------------------------------|
  E S S S S S S E E E E     E S S S S S S E E E E
|------------------------||-----------------------||
|-----------------------o||-----------------------||
|------------------------||-----------------------||
|------------------------||-----------------------||
|-----------------------o||-----------------------||
|-1-1-1-1-1-1-1-1-2-1-2--||-1-1-1-1-1-1-1-1-2-2-2-||


   Outro
                                      1.             2.
    E5         G#5         G5          G#5           G#5
    Gtr I
    W           W           W           W             H    Q  Q
||-----------|-----------|-----------|------------||----------------||
||o----------|-----------|-----------|-----------o||----------------||
||-----------|-----------|-----------|------------||----------------||
||--2--------|--6--------|--5--------|--6---------||--6-------------||
||o-2--------|--6--------|--5--------|--6--------o||--6-------------||
||--0--------|--4--------|--3--------|--4---------||--4----xs=x\----||
|
|   Gtr II
|   W           W           W           W             H    Q  Q
||-----------|-----------|-----------|------------||----------------||
||o----------|-----------|-----------|-----------o||----------------||
||--9--------|-13--------|-12--------|-13---------||-13-------------||
||--9--------|-13--------|-12--------|-13---------||-13-------------||
||o-7--------|-11--------|-10--------|-11--------o||-11-------------||
||-----------|-----------|-----------|------------||-------xs=x\----||


    E5                   G#5
      PM--|       PM         PM---|           PM
    E S S E E +E  E Q     E  S  S  E  E  +E   E  Q
||---------------------|----------------------------|
||o--------------------|----------------------------|
||---------------------|----------------------------|
||--2-------2-(2)---2--|--6-----------6--(6)-----6--|
||o-2-------2-(2)---2--|--6-----------6--(6)-----6--|
||--0-0-0-0-0-(0)-0-0--|--4--4--4--4--4--(4)--4--4--|
|
|     PM--|       PM         PM---|           PM
|   E S S E E +E  E Q     E  S  S  E  E  +E   E  Q
||---------------------|----------------------------|
||o--------------------|----------------------------|
||--9-------9-(9)---9--|-13----------13-(13)----13--|
||--9-------9-(9)---9--|-13----------13-(13)----13--|
||o-7-7-7-7-7-(7)-7-7--|-11-11-11-11-11-(11)-11-11--|
||---------------------|----------------------------|


  G5
      PM---|           PM
   E  S  S  E  E  +E   E  Q
|----------------------------|
|----------------------------|
|----------------------------|
|--5-----------5--(5)-----5--|
|--5-----------5--(5)-----5--|
|--3--3--3--3--3--(3)--3--3--|
|
|     PM---|           PM
|  E  S  S  E  E  +E   E  Q
|----------------------------|
|----------------------------|
|-12----------12-(12)----12--|
|-12----------12-(12)----12--|
|-10-10-10-10-10-(10)-10-10--|
|----------------------------|


  G#5                            E5
      PM---|           PM
   E  S  S  E  E  +E   E  Q       Q     Q      H
|-----------------------------||----------------------|
|----------------------------o||----------------------|
|-----------------------------||----------------------|
|--6-----------6--(6)-----6---||--2-------------------|
|--6-----------6--(6)-----6--o||--2-------------------|
|--4--4--4--4--4--(4)--4--4---||--0-------------------|
|
|     PM---|           PM
|  E  S  S  E  E  +E   E  Q       Q     Q      H
|-----------------------------||----------------------|
|----------------------------o||----------------------|
|-13----------13-(13)----13---||--9-------------------|
|-13----------13-(13)----13---||--9-------------------|
|-11-11-11-11-11-(11)-11-11--o||--7-------------------|
|-----------------------------||----------------------|
|
| Gtr III
|                                       \7
|  W                              Q    +Q     +H
|-----------------------------||-<4>--(<4>)--(<4>)----|
|----------------------------o||----------------------|
|-----------------------------||----------------------|
|-----------------------------||----------------------|
|----------------------------o||----------------------|
|-----------------------------||----------------------|


  PM--------------|      PM--------------|
  S S E S S E S S E Q    S S E S S E S S E E E
|----------------------|-------------------------|
|----------------------|-------------------------|
|----------------------|-------------------------|
|-------------------2--|-------------------2-2---|
|-------------------2--|-------------------2-2---|
|-0-0-0-0-0-0-0-0-0-0--|-0-0-0-0-0-0-0-0-0-0-0---|
|
| PM--------------|      PM--------------|
| S S E S S E S S E Q    S S E S S E S S E E E
|----------------------|-------------------------|
|----------------------|-------------------------|
|-------------------9--|-------------------9-9---|
|-------------------9--|-------------------9-9---|
|-------------------7--|-------------------7-7---|
|-0-0-0-0-0-0-0-0-0----|-0-0-0-0-0-0-0-0-0-------|
|
| W                      W
|----------------------|-------------------------|
|----------------------|-------------------------|
|----------------------|-------------------------|
|----------------------|-------------------------|
|----------------------|-------------------------|
|----------------------|-------------------------|


  Gtrs I, II
  PM--------------|      PM--------------|
  S S E S S E S S E Q    S S E S S E S S E E E   W
|----------------------|-----------------------|------*|
|----------------------|-----------------------|------*|
|-------------------9--|-------------------9-9-|------*|
|-------------------9--|-------------------9-9-|------*|
|-------------------7--|-------------------7-7-|------*|
|-0-0-0-0-0-0-0-0-0----|-0-0-0-0-0-0-0-0-0-----|------*|


Duration Legend
---------------
W - whole; H - half; Q - quarter; E - 8th; S - 16th; T - 32nd; X - 64th; a - acciaccatura
+ - note tied to previous; . - note dotted; .. - note double dotted
Uncapitalized letters represent notes that are staccato (1/2 duration)
Irregular groupings are notated above the duration line
Duration letters will always appear directly above the note/fret number it represents the
duration for.  Duration letters with no fret number below them represent rests.  Multi-
bar rests are notated in the form Wxn, where n is the number of bars to rest for.  Low
melody durations appear below the staff

Tablature Legend
----------------
 h   - hammer-on
 p   - pull-off
 b   - bend
 pb  - pre-bend
 r   - bend release (if no number after the r, then release immediately)
 /\  - slide into or out of (from/to "nowhere")
 s   - legato slide
 S   - shift slide
  - natural harmonic
[n]  - artificial harmonic
n(n) - tapped harmonic
 ~   - vibrato
 tr  - trill
 T   - tap
 TP  - trem. picking
 PM  - palm muting
\n/  - tremolo bar dip; n = amount to dip
 \n  - tremolo bar down
 n/  - tremolo bar up
/n\  - tremolo bar inverted dip
 =   - hold bend; also acts as connecting device for hammers/pulls
 <>  - volume swell (louder/softer)
 x   - on rhythm slash represents muted slash
 o   - on rhythm slash represents single note slash

Misc Legend
-----------
 |  - bar
||  - double bar
||o - repeat start
o|| - repeat end
*|  - double bar (ending)
 :  - bar (freetime)
 $  - Segno
 &  - Coda
Tempo markers -  = BPM(8/16=s8/s16), where s8 = swing 8ths, s16 = swing 16ths
Comments