Sepultura - Attitude Chords & Tabs

 

Attitude Chords & Tabs

Sepultura Chords & Tabs

Version: 1 Type: Tab 0 ratings
1 star 2 stars 3 stars 4 stars 5 stars
comments

Attitude Tab

Hi!
It's me again with the tab for Sepultura's song "Attitude",
contrary to what many people think, this song is actually tuned down
3 steps ( low to high : Bb Eb Ab Db F Bb ) as opposed to the 2 1/2 steps down
like most of the "Roots" album.
The intro is a lot of weird guitar noises put together by Andreas,
improvise on the first 2 strings between the 1st & 6th frets
and it sounds close enough

Symbols:
x   : means you don't play the string, you muffle it
/// : tremelo picking
/   : slide

Intro ( Max first, then both guitars, palm muted ):
E---------------------------------------
B---------------------------------------
G---------------------------------------
D---------------------------------------
A-2-2-2-2-2-2-2-2--2-2-2-2-2-2-2-2-2----
E-0-0-0-0-0-0-0-0--0-0-0-0-0-0-0-0-0----

Main riff:
E---------------------------------------
B---------------------------------------
G---------------------------------------
D---------------------------------------
A--3-/-5-5-5-6-6-6-/-8------------------
E--1-/-3-3-3-4-4-4-/-6------------------

Verse ( pre-verse only Andreas, then Max joins in when he sings ):
E---------------------------------------
B---------------------------------------
G---------------------------------------
D---------------------------------------
A---------------------------------------
E--1-h-3-3-3---------------------------- repeat

Break in verse ( after "These scars won't heal" ):
E---------------------------------------
B---------------------------------------
G---------------------------------------
D---------------------------------------
A--*-*-*-*-*----------------------------
E--*-*-*-*-*---------------------------
harmonics on the 3rd fret

Break ( "can you take it..." ):
E---------------------------------------
B---------------------------------------
G---------------------------------------
D---------------------------------------
A--5---5-5------------------------------
E--3---3-3------------------------------
[ Tab from: http://www.guitartabs.cc/tabs/s/sepultura/attitude_tab.html ]
Fill:
E---------------------------------------
B---------------------------------------
G---------------------------------------
D---------------------------------------
A------4---4-------4---4----------------
E--3-3---3---3-3-3---3------------------

Bridge ( "the only way..." ):
E---------------------------------------
B---------------------------------------
G---------------------------------------
D---------------------------------------
A------8---8---8------------------------
E--0-0-6-0-6-0-6-0-0-0-0-0-0-0----------
PM . .   .   .   . . . . . . .

Solo ( Andreas, Max plays the bridge ):
E--------------------------------------------------------------------
B---------------------------------17-17-17---------------------------
G--15///-/-9--15///---------15///-----------15///--9-9-9---15///-----
D--xx------x--xx------------xx--------------xx-----x-x-x---xx--------
A--13///-/-7--13///--0-0-0--13///-----------13///--7-7-7---13///-----
E--------------------------------------------------------------------

Pre-outro ( after "I won't take it" ):
E---------------------------------------
B---------------------------------------
G---------------------------------------
D---------------------------------------
A--3---5-5-5----------------------------
E--1-h-3-3-3---------------------------- repeat

Outro ( " 'cause in the end..." ):
E---------------------------------------
B---------------------------------------
G---------------------------------------
D---------------------------------------
A--3---5-5-6-6--------------------------
E--1-h-3-3-4-4-------------------------- repeat

End ( palm muted ):
E--------------------------------------
B--------------------------------------
G--------------------------------------
D--------------------------------------
A--2-2-2-2-2-2-2-2---------------------
E--0-0-0-0-0-0-0-0---------------------

That's it, there's also a little solo Andreas plays with wah while
Max plays the pre-outro. Also Max usually plays the Bb string only
in the power chords during the Pre-outro & outro, Andreas doesn't.
For comments, e-mail me : arno.bogaerts@pandora.be
Comments