Septic Flesh - Phallic Litanies Chords & Tabs

 

Phallic Litanies Chords & Tabs

Septic Flesh Chords & Tabs

Version: 1 Type: Tab 0 ratings
1 star 2 stars 3 stars 4 stars 5 stars
comments

Phallic Litanies Tab

                        SEPTIC FLESH - PHALLIC LITANIES
           From the album : Ophidian Wheel - Holy Records - 1997.
               Transcribed and tabbed by Pierre "BOZ" SARDA . 
                             Version 1.0 . May 97 .

tuning : normal.

keyboards intro.

 Riff 1
||-----------------------------------------------------------------------|
||-----------------------------------------------------------------------|
||------------------------------------------------------7--------7-------|
||---------------------------------------------8-7----7------------10-10-|
||-10----8-------------6h8p6-----------10-8-10-----10-----10-8-10--------|
||----11---8~--8-10-11-------10-10-8-8-----------------------------------|

repeat Riff 1 twice


 Riff 2 (one of the awesome riff from Septic Flesh!!!!)
||-------------------------------------|
||-------------------------------------|
||--12121214-12121214-121212-----------| Guit 1
||--12121212-12121212-121212-15-14-10--|
||-------------------------------------|
||-------------------------------------|
||
||-------------------------------------|
||-------------------------------------|
||-------------------------------------| Guit 2
||--7--7--7---7--7---------------------|
||--5--5--5---5--5----7-7-7--8--7--3---|
||--------------------5-5-5--6--5--1---|

repeat Riff 2  4 times.

 Riff 3
||---------------------------------------------------------------------------|
||---------------------------------------------------------------------------|
||---------------------------------------------------------------------------|
||----------5------------------5-7---------------------------5--------------5|
||-5--5-7-8----5--5---5--5-7-8----5---5-8-9-8-5---5--5-5-7-8---5--5--5-5-7-8-|
||------------------1---------------------------8------------------1---------|


 Riff 4
||--------------------------------------------------------------------
||--------------------------------------------------------------------
||-10-7-------7-9-7-10-7-------7-9-7--8-5-------5-7-5-8-5-------5-7-5-
||------8-7-6------------8-7-6------------6-5-4-----------6-5-4-------
||--------------------------------------------------------------------
||--------------------------------------------------------------------

        ---------------------------------|
        ---------------------------------|
        -6-3-------3-5-3-6-3-------3-5-3-|
        -----4-3-2-----------4-3-2-------|
        ---------------------------------|
        ---------------------------------|


 Riff 5
||----------------------------------|
||----------------------------------|
||----------------------------------| Guit 1
||----------------------------------|
||----------------------------------|
||-3-5-4-3---------3-5-4-3----------|
||
||----------------------------------|
||----------------------------------|
||----------------------------------| Guit 2
||---------5-3-3-6---------5-3-3-4--|
||----------------------------------|
||----------------------------------|
Repeat 4 times

Riff 1
Riff 5 (4 times)
[ Tab from: http://www.guitartabs.cc/tabs/s/septic_flesh/phallic_litanies_tab.html ]
 Riff 5'
||--------------------------------------------------------|
||--------------------------------------------------------|
||--------------------------------------------------------| Guit 1
||--------------------------------------------------------|
||--------------------------------------------------------|
||-5-7-6-5---------5-7-6-5--------5-7-6-5---------5-7-6-5-|
||
||--------------------------------------------------------|
||--------------------------------------------------------|
||---------------7--------------7---------------7---------| Guit 2
||---------7-8-8-----------7-8-8----------7-8-8-----------|
||--------------------------------------------------------|
||--------------------------------------------------------|

Riff 3
Riff 2 (8 times)
Riff 3
Riff 4


 Riff 3'
||--------------------------------------------------------------------
||--------------------------------------------------------------------
||-10-7-------7-9-7-10-7-------7-9-7--8-5-------5-7-5-8-5-------5-7-5-
||------8-7-6------------8-7-6------------6-5-4-----------6-5-4-------
||--------------------------------------------------------------------
||--------------------------------------------------------------------
||
||--------------------------------------------------------------------
||-10---------------10----------------8---------------8---------------
||---10---------------10----------------8---------------8-------------
||-----12---------------12----------------10--------------10----------
||-------12-11~-----------12-11~------------10--9~----------10--9~----
||--------------------------------------------------------------------



        ----------------------------------------------|
        ----------------------------------------------|
        -6-3-------3-5-3--6-3-------3-5-3--2-3-2-0-2~-| Guit 1
        -----4-3-2------------4-3-2-------------------|
        ----------------------------------------------|
        ----------------------------------------------|

        ----------------------------------------------|
        -6----------------6---------------------------|
        ---6----------------6-------------------------| Guit 2
        -----8----------------8-----------------------|
        -------8--7~------------8--7~-----------------|
        ----------------------------------------------|


Riff 2 (4 times)

 Riff 2'
||----------------------------------------------------------------------|
||----------------------------------------------------------------------|
||--12121214-12121214-121212-----------12121214-12121214-121212---------|Guit1
||--12121212-12121212-121212-15-14-10--12121212-12121212-121212-15-14-10|
||----------------------------------------------------------------------|
||----------------------------------------------------------------------|
||
||----------------------------------------------------------------------|
||----------------------------------------------------------------------|
||----------------------------------------------------------------------|Guit2
||--7--7--7---7--7------------------------------------------------------|
||--5--5--5---5--5----7-7-7--8--7--3---5--5--5--5--5--5---7------8---10-|
||--------------------5-5-5--6--5--1---3--3--3--3--3--3---5-----X6---8--|

2 times

  End
||--------|
||--------|
||-14-----|
||-12-----|
||--------|
||--------|
||
||--------|
||--------|
||--------|
||-7------|
||-5------|
||--------|


I think this one is 9827757755170K. It s not a hard song to play but it s great:)
Comments