Sentenced - Farewell Chords & Tabs

 

Farewell Chords & Tabs

Sentenced Chords & Tabs

Version: 1 Type: Tab 0 ratings
1 star 2 stars 3 stars 4 stars 5 stars
comments

Farewell Tab

   
standard tuning

Intro Riff: 
e|------------------------------| 
B|------------------------------| 
G|-7-5----------8-7-----5-5-7---| 
D|-----7-8-7--------8-8---------| 
A|-----------8------------------| 
E|------------------------------| 
  
Verses: 

G5-Eb5-C5-Eb5-Fig.1   2x 

Fig. 1: 
e|----------------| 
B|----------------| 
G|----------------| 
D|-8-8-8-8\7/8\7--| 
A|-6-6-6-6/5/6\5--| 
E|----------------| 

Chorus: 
[ Tab from: http://www.guitartabs.cc/tabs/s/sentenced/farewell_tab.html ]
 "Well I regeret every single day..." 
E|------------------------------| 
B|------------------------------| 
G|-7-5----------8-7-----5-5-7---| 
D|-----7-8-7--------8-8---------| 
A|-----------8------------------| 
E|------------------------------| 
  

Bridge Part 1: 

E|--------------------| 
B|--------------------| 
G|--------------------|  3x 
D|-8-8-8-8-8-7-7-8-7--| 
A|-6-6-6-6-6-5-5-6-5--| 
E|--------------------| 

Bridge Part 2: 
Acoustic
E|------------------------------| 
B|------------------------------| 
G|-7-5----------8-7-----5-5-7---|  4x 
D|-----7-8-7--------8-8---------| 
A|-----------8------------------| 
E|------------------------------|
Comments