Sentenced - 0132 Chords & Tabs

 

0132 Chords & Tabs

Sentenced Chords & Tabs

Version: 1 Type: Tab 0 ratings
1 star 2 stars 3 stars 4 stars 5 stars
comments

0132 Tab

I'm surprised no one has tabbed this yet!  It's a tricky, yet fairly short and simple 
part from the Down album.

The key to reading this or any tab is to keep in mind that there are other fingerings 
almost everything on the guitar.  This one seems to work the best for me, here goes:

Lick 1:

-----5---------------------------------------------------|
888-8-5-5h6p5-------5--8-6p5---------6-5----------6-5----|
-------------75-7-77-5------75----------75-----------75--|
------------------------------8-75-8------78-75-8------7-|
----------------------------------8------------8---------|


Lick 2:
[ Tab from: http://www.guitartabs.cc/tabs/s/sentenced/0132_tab.html ]
---------------------------------------------------------|
4-3h4p3-43-46-4h6p4p343-----------34-6p3-----3464-3h4p3--|
-------5---------------3-3W-3R-235------5-235----------5-|
---------------------------------------------------------|
---------------------------------------------------------|
---------------------------------------------------------|

----8---6---3h4p3-3-----3-----34-6p3--|
4-34-6/4-4/3-----5-323-5-5-345------5-|
--------------------------------------|
--------------------------------------|
--------------------------------------|
--------------------------------------|


Lick 3:

-----------------------------------|
---------------------32h3p2---3----|
3-2h3p2---5-3h5p32-23------535-5-6-|
-------535--------5-------------6--|
-----------------------------------|
-----------------------------------|

Just play that through twice.
Comments