Sent By Ravens - New Fire Chords & Tabs

 

New Fire Chords & Tabs

Sent By Ravens Chords & Tabs

Version: 2 Type: Tab 0 ratings
1 star 2 stars 3 stars 4 stars 5 stars
comments

New Fire Tab

   
Artist: Sent By Ravens
Song: New Fire
Album: Our Graceful Words (2010)

This tab was figured out by Kenneth Lee, I am just recording it so that other 
people can use it in tab form.  Credit goes to him and his tutorial videos. 
Check his channel out!
www.youtube.com/akintomeatloaf

Tuning: Dropped D Flat
eb bb gb db ab db

Intro:
|----------------------------------------------------------------------|
|----------------------------------------------------------------------|
|----------------------------------------------------12----------------|
|---12-12-12-12-12-15-12-12-12-12-12--12-12-12-12-12---12-12-12-12-12--|
|----------------------------------------------------------------------|
|----------------------------------------------------------------------|

|------------------------------------|
|------------------------------------|
|------------------------------------|
|-12-12-12-12-12-15-12-12-12-12-12---|
|------------------------------------|
|------------------------------------|

|-----------------------------------------------------------------------|
|------------------------------10b~~~~~~--------------------------------|
|---15-15-15-15-15-15--14b-12b-12b~~~~~~--------------------------------|
|-----------------------------------------3-5-3-7b----5-7-5---5-7----0~-|
|-----------------------------------------3---3----8--5-----8--------0~-|
|-----------------------------------------3---3-------5--------------0~-|

Verse 1:
|---------------------------------------------------------|
|---------------------------------------------------------|
|---------------------------------------------------------|
|-----10~---7--5--0~---7~---5~---000-0000-0000-00---------|
|------8~---------0~---5~---3~---000-0000-0000-00---------|
|------8~---------0~---5~---3~---000-0000-0000-00---------|
pm                                   **** **** **             

|---------------------------------------------------------|
|---------------------------------------------------------|
|---------------------------------------------------------|
|-101010-10101010-10101010-1010---------------------------|
|--8-8-8--8-8-8-8--8-8-8-8--8-8---------------------------|
|--8-8-8--8-8-8-8--8-8-8-8--8-8---------------------------|
pm        * * * *  * * * *  * *
Note: Those are 10's, not 1's and 0's

|-------------------------------------|
|-------------------------------------|
|-------------------------------------|
|---777-777-777-777-555-555-11~~------|
|---555-555-555-555-333-333--7~~------|
|---555-555-555-555-333-333--7~~------|
                                         
|--------------------------------------------------------------------------|
|--------------------------------------------------------------------------|
|--------------------------------------------------------------------------|
|--5-5-5-5-5-5-5-5-5-5-5-5-5-5-5-5-5-51010101010101010-121212121212121212--|
|--5-5-5-5-5-5-5-5-5-5-5-5-5-5-5-5-5-5-8-8-8-8-8-8-8-8-101010101010101010--|
|--5-5-5-5-5-5-5-5-5-5-5-5-5-5-5-5-5-5-8-8-8-8-8-8-8-8-101010101010101010--|

Chorus:
|-------------------------------------------------------------------|
|-------------------------------------------------------------------|
|-------------------------------------------------------------------|
|--000-----000-----101010-------101010------3-5-3-7b---5-7-5---5-7--|
|--000-----000------8-8-8-12b----8-8-8-12b--3---3----8-5-----8------|
|--000-----000------8-8-8--------8-8-8------3---3------5------------|
[ Tab from: http://www.guitartabs.cc/tabs/s/sent_by_ravens/new_fire_tab_ver_2.html ]
Verse 2:
|------------------------------------------------------------------------|
|------------------------------------------------------------------------|
|------------------------------------------------------------------------|
|-0~--101010-10101010-10101010-1010--0~--777-7777-5555-55--0~---7--5--0~-|
|-0~--101010-10101010-10101010-1010--0~--555-5555-3333-33--0~---------0~-|
|-0~---8-8-8--8-8-8-8--8-8-8-8--8-8--0~--555-5555-3333-33--0~---------0~-|
pm            * * * *  * * * *  * *          **** **** **     

|------------------------------|
|------------------------------|
|------------------------------|
|-10--7--5--11-----------------|
|--8--5--3---7-----------------|
|--8--5--3---7-----------------|

|-----8--8-----------8--8---------8--8-----------8------------------------|
|----6--6--6-8/10~--6--6--6-8b~--6--6--6-8/10~--6--6-8b~------------------|
|---7--7--7--------7--7--7------7--7--7--------7--7-----------------------|
|-------------------------------------------------------------------------|
|-------------------------------------------------------------------------|
|-------------------------------------------------------------------------|

Chorus:
|-------------------------------------------------------------------------|
|-------------------------------------------------------------------------|
|-------------------------------------------------------------------------|
|--000-----000-----101010-------101010------3-5-3-7b---5-7-5---5-7--------|
|--000-----000------8-8-8-12b----8-8-8-12b--3---3----8-5-----8------------|
|--000-----000------8-8-8--------8-8-8------3---3------5------------------|

Bridge:
|----------------0~---|---------------------------------------------------|
|----------------0~---|---5-------------6---------------------------------|
|----------------0~---|---7b------------8b------7--Play this part 4 times-|
|---------------------|-------0-3-7-0-------8-0-7-0-----------------------|
|-----7------8--------|-------0-3-7-0-------8-0-5-0-----------------------|
|---8---8--5---5------|-------0-3-7-0-------8-0---0-----------------------|

|---------------------|
|---------------------|
|---------------------|
|---------------------|
|-----7------8--------|
|---8---8--5---5------|

Chorus:
|-------------------------------------------------------------------------|
|-------------------------------------------------------------------------|
|-------------------------------------------------------------------------|
|--000-----000-----101010-------101010------3-5-3-7b---5-7-5---5-7--------|
|--000-----000------8-8-8-12b----8-8-8-12b--3---3----8-5-----8------------|
|--000-----000------8-8-8--------8-8-8------3---3------5------------------|

|-----------------------------------------------------------|
|-----------------------------------------------------------|
|------1010101010101010101010----1010101010101010101010-----|
|--000-x-x-x-x-x-x-x-x-x-x-x--000-x-x-x-x-x-x-x-x-x-x-x-----|
|--000-8-8-8-8-8-8-8-8-8-8-8--000-8-8-8-8-8-8-8-8-8-8-8-----|
|--000------------------------000---------------------------|

|------------------------------------------------|
|------------------------------------------------|
|------------------------------------------------|
|-101010-------101010------3-5-3-7b---5-7-5---5-7|
|--8-8-8-12b----8-8-8-12b--3---3----8-5-----8----|
|--8-8-8--------8-8-8------3---3------5----------|

|--------------------------------------------------|
|----10------6------5------9-----------------------|
|--------------------------------------------------|
|--8----8--5---5--3---3--7---7--0~~----------------|
|--8----8--5---5--3---3--7---7--0~~----------------|
|--8----8--5---5--3---3--7---7--0~~----------------|

That's it! I hope this helps.
Comments