Senses Fail - Youre Cute When You Scream Chords & Tabs

 

Youre Cute When You Scream Chords & Tabs

Senses Fail Chords & Tabs

Version: 2 Type: Tab 0 ratings
1 star 2 stars 3 stars 4 stars 5 stars
comments

Youre Cute When You Scream Tab

   
ugh.. sry if its confusing
-DROP D-

INTRO:
*guitar one*
|---------------|
|---------------|
|---------------|
|----5~-----5---|
|----5~-----5---|
|----5~-----5---|
            .

*guitar two*
|---------------|
|---------------|
|---------------|
|---8p5h7p5-5h7-|
|---------------|
|---------------|








VERSE:
*guitar one*
|------------------------------------------|
|------------------------------------------|
|------------------------------------------|
|-5---55---55---11-33-55---55---55---11-33-|
|-5---55---55---11-33-55---55---55---11-33-|
|-5---55---55---11-33-55---55---55---11-33-|
  .    .    .          .    .    .    

|-------------------------------------------|
|-------------------------------------------|
|-------------------------------------------|
|-55---55---55---11-33-55---55---55---11-33-|
|-55---55---55---11-33-55---55---55---11-33-|
|-55---55---55---11-33-55---55---55---11-33-|
   .    .    .          .    .    .      

*guitar two*
|-------------------------------------|
|-------------------------------------|
|-------------------------------------|
|----8p7h8---8p7h8---8p7h8------------| 4x
|-------------------------------------|
|-------------------------------------|








PRECHORUS:
*guitar one*
|---------------------------------|---------------------------------|
|---------------------------------|---------------------------------|
|---------------------------------|-3-3-3-3-3-3-3-3-----------------|
|-1-1-1-1-1-1-1-1-3-3-3-3-3-3-3-3-|-3-3-3-3-3-3-3-3-5-5-5-5-3-3-3-x-|
|-1-1-1-1-1-1-1-1-3-3-3-3-3-3-3-3-|-1-1-1-1-1-1-1-1-5-5-5-5-3-3-3-x-|
|-1-1-1-1-1-1-1-1-3-3-3-3-3-3-3-3-|-----------------5-5-5-5-3-3-3-x-|
                                                                .

*guitar two*
|-----------------------------------|
|-----------------------------------|
|-3-3-3-3-3-3-5-5-7-7-7-7-5-5-5/7\5-|
|-x-x-x-x-x-x-x-x-x-x-x-x-x-x-x/x\x-|
|-1-1-1-1-1-1-3-3-5-5-5-5-3-3-3-5-3-|
|-----------------------------------|

|-----------------------------------|
|-----------------------------------|
|-3-3-3-3-3-3-5-5-7-7-7-7-5-5-5-----|
|-x-x-x-x-x-x-x-x-x-x-x-x-x-x-x-----|
|-1-1-1-1-1-1-3-3-5-5-5-5-3-3-3-----|
|-----------------------------------|
                              .






[ Tab from: http://www.guitartabs.cc/tabs/s/senses_fail/youre_cute_when_you_scream_tab_ver_2.html ]
CHORUS:
*guitar one*
|-----------------------------------------------------------------|
|-----------------------------------------------------------------|
|---------------------------------3-3-3-3-3-3-3-3-----------------|
|-5-5-5-5-5-5-5-5-1-1-1-1-1-1-1-1-3-3-3-3-3-3-3-3-3-3-3-3-3-3-3-3-| 2x
|-5-5-5-5-5-5-5-5-1-1-1-1-1-1-1-1-1-1-1-1-1-1-1-1-3-3-3-3-3-3-3-3-|
|-5-5-5-5-5-5-5-5-1-1-1-1-1-1-1-1-----------------3-3-3-3-3-3-3-3-|

*guitar two*
|-----------------------------------------------------------------|
|-----------------------------------------------------------------|
|-3-3-3-3-3-3-3-3-8-8-8-8-8-8-8-8-7-7-7-7-7-7-7-7-5-5-5-5-8-8-7-7-|
|-x-x-x-x-x-x-x-x-x-x-x-x-x-x-x-x-x-x-x-x-x-x-x-x-x-x-x-x-x-x-x-x-| 2x
|-1-1-1-1-1-1-1-1-6-6-6-6-6-6-6-6-5-5-5-5-5-5-5-5-3-3-3-3-6-6-5-5-|
|-----------------------------------------------------------------|





POST CHORUS:
*guitar one*
|------------------------------------------|
|------------------------------------------|
|------------------------------------------|
|-5---55---55---11-33-55---55---55---11-33-|
|-5---55---55---11-33-55---55---55---11-33-|
|-5---55---55---11-33-55---55---55---11-33-|

*guitar two*
|-------------------------------------|
|-------------------------------------|
|-------------------------------------|
|----8p7h8---8p7h8---8p7h8------------| 2x
|-------------------------------------|
|-------------------------------------|





BRIDGE:
*guitars together*
|-------------------------------------------------|
|-------------------------------------------------|
|-------------------------------------------------|
|-1~----3~----0~----8--7--1~----3~----0~----8--7--|
|-1~----3~----0~----8--7--1~----3~----0~----8--7--|
|-1~----3~----0~----8--7--1~----3~----0~----8--7--|

|----------------------------------------------------------|
|----------------------------------------------------------|
|----------------------------------------------------------|
|-1-11111111111111-3-33333333333333-0-00000000000-88887777-|
|-1-11111111111111-3-33333333333333-0-00000000000-88887777-|
|-1-11111111111111-3-33333333333333-0-00000000000-88887777-|
    ..............   ..............   ........... ........

|----------------------------------------------------------|
|----------------------------------------------------------|
|----------------------------------------------------------|
|-1-11111111111111-3-33333333333333-0-00000000000-88887----|
|-1-11111111111111-3-33333333333333-0-00000000000-88887----|
|-1-11111111111111-3-33333333333333-0-00000000000-88887----|
    ..............   ..............   ...........     .



INTRO
VERSE
PRECHORUS
CHORUS
POST CHORUS
VERSE
PRECHORUS
CHORUS
BRIDGE
CHORUS
POST CHORUS
end
Comments