Senses Fail - Youre Cute When You Scream Chords & Tabs

 

Youre Cute When You Scream Chords & Tabs

Senses Fail Chords & Tabs

Version: 1 Type: Tab 0 ratings
1 star 2 stars 3 stars 4 stars 5 stars
comments

Youre Cute When You Scream Tab

senses fail
your cute when you scream
tunning:dadgbe
INTRO
e------------------------------------|
b------------------------------------|
g------------------------------------|
d--5~----8p5-7p5-5h7-----------------|
a--5~--------------------------------|
d--5~--------------------------------|
VERSE X4
e-----------------------------------------------|
b-----------------------------------------------|
g-----------------------------------------------|
d--5----5h7h8--55--5h7h8--55--5h7h8-----1--3----|
a--5-----------55---------55------------1--3----|
d--5-----------55---------55------------1--3----|
CHORUS
e---------------------------------------------------------------|
b---------------------------------------------------------------|
g---------------------------------------------------------------|
d-1111111113333335555553333333--33333333--33333355555551111111--|
a-1111111113333335555553333333--11110000--33333355555551111111--|
d-1111111113333335555553333333------------33333355555551111111--|
                              **        **
VERSE X2

"ill take you on to the top"
e--------------------|
b--------------------|
g--------------------|
d-1~--3~---0~---3~---|  [X2]
a-1~--3~---0~---1~---|
d-1~--3~---0~--------|
[ Tab from: http://www.guitartabs.cc/tabs/s/senses_fail/youre_cute_when_you_scream_tab.html ]
Comments