Senses Fail - Tie Her Down Chords & Tabs

 

Tie Her Down Chords & Tabs

Senses Fail Chords & Tabs

Version: 2 Type: Tab 0 ratings
1 star 2 stars 3 stars 4 stars 5 stars
comments

Tie Her Down Tab

Band:Senses Fail
Album:Let It Unfold You
Tuning: Drop D

                              Intro
e--------------------------------------------------------------------------|
b--------------------------------------------------------------------------|
g-------------------77777--------------------------------------------------|
d-1212121212-777777-77777--------------------------------------------------|
a-9999999999-777777-77777--------------------------------------------------|
d-9999999999-777777-55555--0h4h5p40----------------------------------------|


Verse

[ Tab from: http://www.guitartabs.cc/tabs/s/senses_fail/tie_her_down_tab_ver_2.html ]
e--------------------------------------------------------------------------|
b--------------------------------------------------------------------------|
g-------------------77777--------------------------------------------------|
d-1212121212-777777-77777--------------------------------------------------|
a-9999999999-777777-77777--------------------------------------------------|
d-9999999999-777777-55555--0h4h5p40----------------------------------------|


Chorus


e---------------------------------------------------------|
b---------------------------------------------------------|
g---------------------------------------------------------|
d-1212121212121212--7777777777777777----------------------|
a-9999999999999999--5555555555555555----------------------|
d-9999999999999999--5555555555555555----------------------|


Outro

e---------------------------------------------------------------------|
b---------------------------------------------------------------------|
g---------------------------------------------------------------------|
d-0--------5-------9-----5--------------------------------------------|
a-0--------5-------9-----5--------------------------------------------|
d-0~-------5~------9~----5~-------------------------------------------|
Comments