Senses Fail - The Ground Folds Acoustic Chords & Tabs

 

The Ground Folds Acoustic Chords & Tabs

Senses Fail Chords & Tabs

Version: 4 Type: Tab 0 ratings
1 star 2 stars 3 stars 4 stars 5 stars
comments

The Ground Folds Acoustic Tab

Senses Fail - The Ground Folds (Acoustic)

Tabbed by: Brad

Tuning: Drop D (ebgdaD)

	= Let note ring
	* For rhythem guitar, means normal 10th fret
			
			Guitar 1

0:00 (Intro)
e|-------------------------------------------------------------------------|
B|-------------------------------------------------------------------------|
G|-7-777-7-77777777--8-888-8-88888888--*-***-*-********--9-999-9-99999999--|
D|-5-555-5-55555555--8-888-8-88888888--8-888-8-88888888--7-777-7-77777777--|  x2
A|-5-555-5-55555555--6-666-6-66666666--8-888-8-88888888--7-777-7-77777777--|
D|-5-555-5-55555555--------------------8-888-8-88888888--7-777-7-77777777--|

0:20 (Verse)
e|-------------------------------------------------------------------------|
B|-------------------------------------------------------------------------|
G|-7-777-7-77777777--8-888-8-88888888--*-***-*-********--*-***-*-********--|
D|-5-555-5-55555555--8-888-8-88888888--8-888-8-88888888--8-888-8-88888888--|  x2
A|-5-555-5-55555555--6-666-6-66666666--8-888-8-88888888--8-888-8-88888888--|
D|-5-555-5-55555555--------------------8-888-8-88888888--8-888-8-88888888--|

0:40 (Pre Chorus)
e|--------------------------------------------------------------------------|
B|--------------------------------------------------------------------------|
G|-7-777-7-77777777--5-555-5-55555555--3-333-3-33333333--33333333/55555555--|
D|-5-555-5-55555555--3-333-3-33333333--1-111-1-11111111--11111111/33333333--|  
A|-5-555-5-55555555--3-333-3-33333333--1-111-1-11111111--11111111/33333333--|
D|-5-555-5-55555555--3-333-3-33333333--1-111-1-11111111--11111111/33333333--|

0:50 (Chorus)
e|-------------------------------------------------------------------
B|-------------------------------------------------------------------
G|-*-****-*-******-*-****-*-******--8-8888-8-888888-8-8888-7-777777--
D|-8-8888-8-888888-8-8888-8-888888--8-8888-8-888888-8-8888-8-888888--
A|-8-8888-8-888888-8-8888-8-888888--6-6666-6-666666-6-6666-6-666666--
D|-8-8888-8-888888-8-8888-8-888888-----------------------------------

  ---------------------------------------------------------------------|
  ---------------------------------------------------------------------|
  -7-7777-7-777777--1-1111-1-111111--3-3333-3-333333--3-3333-3-333333--|
  -5-5555-5-555555--3-3333-3-333333--1-1111-1-111111--1-1111-1-111111--|  x2
  -5-5555-5-555555--3-3333-3-333333--1-1111-1-111111--1-1111-1-111111--|
  -5-5555-5-555555--3-3333-3-333333--1-1111-1-111111--1-1111-1-111111--|

1:30 (Verse)
e|-------------------------------------------------------------------------|
B|-------------------------------------------------------------------------|
G|-7-777-7-77777777--8-888-8-88888888--*-***-*-********--*-***-*-********--|
D|-5-555-5-55555555--8-888-8-88888888--8-888-8-88888888--8-888-8-88888888--|  x2
A|-5-555-5-55555555--6-666-6-66666666--8-888-8-88888888--8-888-8-88888888--|
D|-5-555-5-55555555--------------------8-888-8-88888888--8-888-8-88888888--|

1:50 (Pre Chorus)
e|--------------------------------------------------------------------------|
B|--------------------------------------------------------------------------|
G|-7-777-7-77777777--5-555-5-55555555--3-333-3-33333333--33333333/55555555--|
D|-5-555-5-55555555--3-333-3-33333333--1-111-1-11111111--11111111/33333333--|  
A|-5-555-5-55555555--3-333-3-33333333--1-111-1-11111111--11111111/33333333--|
D|-5-555-5-55555555--3-333-3-33333333--1-111-1-11111111--11111111/33333333--|

2:00 (Chorus)
e|-------------------------------------------------------------------
B|-------------------------------------------------------------------
G|-*-****-*-******-*-****-*-******--8-8888-8-888888-8-8888-7-777777--
D|-8-8888-8-888888-8-8888-8-888888--8-8888-8-888888-8-8888-8-888888--
A|-8-8888-8-888888-8-8888-8-888888--6-6666-6-666666-6-6666-6-666666--
D|-8-8888-8-888888-8-8888-8-888888-----------------------------------

  ---------------------------------------------------------------------|
  ---------------------------------------------------------------------|
  -7-7777-7-777777--1-1111-1-111111--3-3333-3-333333--3-3333-3-333333--|
  -5-5555-5-555555--3-3333-3-333333--1-1111-1-111111--1-1111-1-111111--|  x2
  -5-5555-5-555555--3-3333-3-333333--1-1111-1-111111--1-1111-1-111111--|
  -5-5555-5-555555--3-3333-3-333333--1-1111-1-111111--1-1111-1-111111--|

2:40 (Bridge, Pt 1)
e|--------------------------------------------------------------------------|
B|--------------------------------------------------------------------------|
G|-7-777-7-77777777--5-555-5-55555555--3-333-3-33333333--3-333-3-33333333---|
D|-5-555-5-55555555--3-333-3-33333333--1-111-1-11111111--1-111-1-11111111---|  
A|-5-555-5-55555555--3-333-3-33333333--1-111-1-11111111--1-111-1-11111111---|
D|-5-555-5-55555555--3-333-3-33333333--1-111-1-11111111--1-111-1-11111111---|

e|--------------------------------------------------------------------------|
B|--------------------------------------------------------------------------|
G|-7-777-7-77777777--5-555-5-55555555--3-333-3-33333333--33333333/55555555--|
D|-5-555-5-55555555--3-333-3-33333333--1-111-1-11111111--11111111/33333333--|  
A|-5-555-5-55555555--3-333-3-33333333--1-111-1-11111111--11111111/33333333--|
D|-5-555-5-55555555--3-333-3-33333333--1-111-1-11111111--11111111/33333333--|
[ Tab from: http://www.guitartabs.cc/tabs/s/senses_fail/the_ground_folds_acoustic_tab_ver_4.html ]
3:00 (Bridge, pt 2)
e|-------------------------------------------------------------------|
B|-------------------------------------------------------------------|
G|-*-****-*-******-*-****-*-******--8-8888-7-777777-8-8888-7-777777--|
D|-8-8888-8-888888-8-8888-8-888888--8-8888-8-888888-8-8888-8-888888--|  x6
A|-8-8888-8-888888-8-8888-8-888888--6-6666-6-666666-6-6666-6-666666--|
D|-8-8888-8-888888-8-8888-8-888888-----------------------------------|

4:01 (Outro)
e|-------------------------------------------------------------------------|
B|-------------------------------------------------------------------------|
G|-7-777-7-77777777--5-555-5-55555555--3-333-3-33333333--3-333-3-33333333--|
D|-5-555-5-55555555--3-333-3-33333333--1-111-1-11111111--1-111-1-11111111--|  x2
A|-5-555-5-55555555--3-333-3-33333333--1-111-1-11111111--1-111-1-11111111--|
D|-5-555-5-55555555--3-333-3-33333333--1-111-1-11111111--1-111-1-11111111--|

4:22 (Outro,{Last notes})
e|---------------|
B|---------------|
G|-3===========--|
D|-1===========--|
A|-1===========--|
D|-1===========--|


				Guitar 2
0:00 (Intro)
e|-8-6---6-----8-6---6-----10-6---8-6-5-----10-6---8-6-5--|
B|-----6-----------6--------------------------------------|
G|--------------------------------------------------------|
d|--------------------------------------------------------|
a|--------------------------------------------------------|
D|--------------------------------------------------------|
  
  0:30 |0:33 |0:35 | (Verse)
e|-10=-|-8=--|-6=--|
B|--6=-|-6=--|-6=--|
G|-----|-----|-----|
D|-----|-----|-----|
A|-----|-----|-----|
D|-----|-----|-----|
   
0:40 (Pre Chorus)
e|-6----6----6---6----6----6---6----6----6---8----10----8---6==-|
B|---66---66---6---66---66---6---66---66---6---66----66---6-6==-|
G|--------------------------------------------------------------|
d|--------------------------------------------------------------|
a|--------------------------------------------------------------|
D|--------------------------------------------------------------|

0:50 (Chorus)
e|-------------------------------------------------------------------
B|-------------------------------------------------------------------
G|-*-****-*-******-*-****-*-******--8-8888-8-888888-8-8888-7-777777--
D|-8-8888-8-888888-8-8888-8-888888--8-8888-8-888888-8-8888-8-888888--
A|-8-8888-8-888888-8-8888-8-888888--6-6666-6-666666-6-6666-6-666666--
D|-8-8888-8-888888-8-8888-8-888888-----------------------------------

  ---------------------------------------------------------------------|
  ---------------------------------------------------------------------|
  -7-7777-7-777777--1-1111-1-111111--3-3333-3-333333--3-3333-3-333333--|
  -5-5555-5-555555--3-3333-3-333333--1-1111-1-111111--1-1111-1-111111--|  x2
  -5-5555-5-555555--3-3333-3-333333--1-1111-1-111111--1-1111-1-111111--|
  -5-5555-5-555555--3-3333-3-333333--1-1111-1-111111--1-1111-1-111111--|

  1:30 |1:33 |1:35 |1:40 |1:43 |1:45 | (Verse)
e|-10=-|-8=--|-6=--|-10=-|-8=--|-6=--|
B|--6=-|-6=--|-6=--|--6=-|-6=--|-6=--|
G|-----|-----|-----|-----|-----|-----|
D|-----|-----|-----|-----|-----|-----|
A|-----|-----|-----|-----|-----|-----|
D|-----|-----|-----|-----|-----|-----|

1:50 (Pre Chorus)
e|-6----6----6---6----6----6---6----6----6---8----10----8---6==-|
B|---66---66---6---66---66---6---66---66---6---66----66---6-6==-|
G|--------------------------------------------------------------|
d|--------------------------------------------------------------|
a|--------------------------------------------------------------|
D|--------------------------------------------------------------|

2:00 (Chorus)
e|-------------------------------------------------------------------
B|-------------------------------------------------------------------
G|-*-****-*-******-*-****-*-******--8-8888-8-888888-8-8888-7-777777--
D|-8-8888-8-888888-8-8888-8-888888--8-8888-8-888888-8-8888-8-888888--
A|-8-8888-8-888888-8-8888-8-888888--6-6666-6-666666-6-6666-6-666666--
D|-8-8888-8-888888-8-8888-8-888888-----------------------------------

  ---------------------------------------------------------------------|
  ---------------------------------------------------------------------|
  -7-7777-7-777777--1-1111-1-111111--3-3333-3-333333--3-3333-3-333333--|
  -5-5555-5-555555--3-3333-3-333333--1-1111-1-111111--1-1111-1-111111--|  x2
  -5-5555-5-555555--3-3333-3-333333--1-1111-1-111111--1-1111-1-111111--|
  -5-5555-5-555555--3-3333-3-333333--1-1111-1-111111--1-1111-1-111111--|

2:40 (Bridge, pt 1,{Piano part, on guitar})
e|-------13===--------13-15-13===-------13===-------15--|
B|-11===--------11===-------------11===-------11===-----|
G|------------------------------------------------------|
d|------------------------------------------------------|  x2
a|------------------------------------------------------|
D|------------------------------------------------------|

2:30 (Bridge, pt 2,{There's lots happening here but this sound good})
e|------------------------------------------------------|
B|------------------------------------------------------|
G|-------10===--------10-12-10===-------10===-------12--|
d|--8===---------8===--------------8===--------8===-----| x6
a|------------------------------------------------------|
D|------------------------------------------------------|

3:01 (Outro,{Piano part, on guitar})
e|-13----13----13---13----13----13----|
B|---11----11----11---11----11----11--|
G|-----10----10---------10----10------|
d|------------------------------------|  x4
a|------------------------------------|
D|------------------------------------|

4:22 (Outro, {Last notes})
e|---------------|
B|---------------|
G|---------------|
D|-13===========-|
A|-11===========-|
D|-10===========-|
Comments