Senses Fail - The Ground Folds Acoustic Chords & Tabs

 

The Ground Folds Acoustic Chords & Tabs

Senses Fail Chords & Tabs

Version: 2 Type: Tab 0 ratings
1 star 2 stars 3 stars 4 stars 5 stars
comments

The Ground Folds Acoustic Tab

   
Tabbed by:Adam
Drop D

Figure out the strumming yourself
Guitar 1 Part

Intro 2X
e|--------------------------------|
B|--------------------------------|
G|--7--------8--------10----------|
D|--5--------8--------8-----------|
A|--5--------6--------8-----------|
D|--5-----------------8-----------|

Verse 2X
e|-----------------------------|
B|-----------------------------|
G|--7-------8-------10---------|
D|--5-------8-------8----------|
A|--5-------6-------8----------|
D|--5---------------8----------|

Pre-Chorus        |Chorus 2X
                  |
e|----------------|---------------------------------------|
B|----------------|---------------------------------------|
G|--7---5---3---5-|-10--8--7----10--8--7---7---5---3---5--|
D|--5---3---1---3-|-8---8--8----8---8--8---5---3---1---3--|
A|--5---3---1---3-|-8---6--6----8---6--6---5---3---1---3--|
D|--5---3---1---3-|-8-----------8----------5---3---1---3--|

Chorus Cont.

e|-------------------------------------|
B|-------------------------------------|
G|-10--8--7----10--8--7---7---5---3----|
D|-8---8--8----8---8--8---5---3---1----|
A|-8---6--6----8---6--6---5---3---1----|
D|-8-----------8----------5---3---1----|

Verse
Pre-Chorus
Chorus 
[ Tab from: http://www.guitartabs.cc/tabs/s/senses_fail/the_ground_folds_acoustic_tab_ver_2.html ]
Then this.. 3X
e|---------------------------------------|
B|---------------------------------------|
G|--7---5---3------7---5---3-------5-----|
D|--5---3---1------5---3---1-------3-----|
A|--5---3---1------5---3---1-------3-----|
D|--5---3---1------5---3---1-------3-----|
Continued
e|-------------------------------------------------------------------|
B|-------------------------------------------------------------------|
G|--3---5---7---8---7---5---10--3---10--3--8-----7-----5--10-3-10-3--|
D|--1---3---5---6---5---3---8---1---8---1--6-----5-----3--8--1-8--1--|
A|--1---3---5---6---5---3---8---1---8---1--6-----5-----3--8--1-8--1--|
D|--1---3---5---6---5---3---8---1---8---1--6-----5-----3--8--1-8--1--|

End.. 2X
e|--------------|
B|--------------| End with  3~
G|--7---5---3---|           1~
D|--5---3---1---|           1~ 
A|--5---3---1---|           1~ 
D|--5---3---1---|

Guitar 2 Part
The strumming is specific here...

Intro 
e|--8-6---6---8-6---6---10-6--8-6/5--------|
B|------6---------6------------------------|
G|-----------------------------------------|
D|-----------------------------------------|
A|-----------------------------------------|
D|-----------------------------------------|

Verse  
e|--10~-|--8~--|--6~--|
B|--6-~-|--6~--|--6~--|
G|------|------|------|
D|------|------|------|
A|------|------|------|
D|------|------|------|
   0:30 | 0:33 | 0:36 |

Pre-Chorus
e|-6-----6-----6---6-----6-----6---6-----6-----6---8-----10-----8---6~-|
B|---6-6---6-6---6---6-6---6-6---6---6-6---6-6---6---6-6----6-6---6-6~-|
G|---------------------------------------------------------------------|
D|---------------------------------------------------------------------|
A|---------------------------------------------------------------------|
D|---------------------------------------------------------------------|

Chorus 2x THE SAME AS THE VERSE...THE STRUMMING TIMES ARE AS FOLLOWED
1:00  1:03  1:06
1:20  1:23  1:26

Verse
Pre Chorus
Chorus 2X

Piano Part During Breakdown (Which I play as a guitar Part)

e|-----13-----13-15-13----|
B|--11-----11----------11-|

End Piano Part                           END ON
e|-13----13----13--13----13----13----13----13~--|
B|---11----11----11--11----11----11----11--11~--|
G|-----10----10--------10----10----10------10~--|

Okay, I'm quite sure this is correct. Remember to figure
out the 1st guitar's strumming. Some parts are played and strummed
longer than others. Enjoy.
Comments