Senses Fail - Stephen Chords & Tabs

 

Stephen Chords & Tabs

Senses Fail Chords & Tabs

Version: 4 Type: Tab

Stephen Tab

   
----------------------------------------------------------------------------
			     STEVEN - Senses Fail
----------------------------------------------------------------------------
Tabbed by:podboy

Tuning:Drop D

Intro
e|-------------------------------------------------------------------------|
B|-------------------------------------------------------------------------|
G|----7----7----7----7----7----7----7----7---------------------------------|
D|-----7----7----7----7----7----7----7----7--------------------------------|
A|---5----5----5----5----5----5----5----5----5-----------------------------|
E|-------------------------------------------------------------------------|

Intro Pt 2
e|-------------------------------------------------------------------------|
B|-------------------------------------------------------------------------|
G|-------------------------------------------------------------------------|
D|---7-7-7-7-7-7--5--3-3-3-3-3-3-------------------------------------------|
A|---7-7-7-7-7-7--5--3-3-3-3-3-3---x2--------------------------------------|
E|---7-7-7-7-7-7--5--3-3-3-3-3-3-------------------------------------------|

Guitar in the background I didn't tab in the verse

Pre-chorus
e|-------------------------------------------------------------------------|
B|-------------------------------------------------------------------------|
G|-------------------------------------------------------------------------|
D|--0-0-0-0-0-0-2-2-2-2-2-2-3-3-3-3-3-3------------------------------------|
A|--0-0-0-0-0-0-2-2-2-2-2-2-3-3-3-3-3-3--x2--------------------------------|
E|--0-0-0-0-0-0-2-2-2-2-2-2-3-3-3-3-3-3------------------------------------|

Chorus
e|-------------------------------------------------------------------------|
B|-------------------------------------------------------------------------|
G|-------------------------------------------------------------------------|
D|--0-0-0-0-0-0-0-0-0-3-3-3-3-3-3-3-3-3------------------------------------|
A|--0-0-0-0-0-0-0-0-0-3-3-3-3-3-3-3-3-3---x2-------------------------------|
E|--0-0-0-0-0-0-0-0-0-3-3-3-3-3-3-3-3-3------------------------------------|

e|-------------------------------------------------------------------------|
B|-------------------------------------------------------------------------|
G|-------------------------------------------------------------------------|
D|--7-7-7-7-7-7-7-7-5-5-3-3-3-3-3-3-3-3------------------------------------|
A|--7-7-7-7-7-7-7-7-5-5-3-3-3-3-3-3-3-3------------------------------------|
E|--7-7-7-7-7-7-7-7-5-5-3-3-3-3-3-3-3-3------------------------------------|

e|-------------------------------------------------------------------------|
B|-------------------------------------------------------------------------|
G|-------------------------------------------------------------------------|
D|--0-0-0-0-0-0-0-0-0-3-3-3-3-3-3-3-3-3------------------------------------|
A|--0-0-0-0-0-0-0-0-0-3-3-3-3-3-3-3-3-3----x2------------------------------|
E|--0-0-0-0-0-0-0-0-0-3-3-3-3-3-3-3-3-3------------------------------------|

e|-------------------------------------------------------------------------|
B|-------------------------------------------------------------------------|
G|-------------------------------------------------------------------------|
D|--7-7-7-7-7-7-7-7-5-5-3-3-3-3-3-3-3-3------------------------------------|
A|--7-7-7-7-7-7-7-7-5-5-3-3-3-3-3-3-3-3------------------------------------|
E|--7-7-7-7-7-7-7-7-5-5-3-3-3-3-3-3-3-3------------------------------------|
[ Tab from: http://www.guitartabs.cc/tabs/s/senses_fail/stephen_tab_ver_4.html ]
Verse 2
e|-------------------------------------------------------------------------|
B|-------------------------------------------------------------------------|
G|-------------------------------------------------------------------------|
D|--7-7-7-7-7-7-7-7-5-5-3-3-3-3-3-3-3-3------------------------------------|
A|--7-7-7-7-7-7-7-7-5-5-3-3-3-3-3-3-3-3---x2-------------------------------|
E|--7-7-7-7-7-7-7-7-5-5-3-3-3-3-3-3-3-3------------------------------------|
    x x x x x x x x     x x x x x x x x

Pre-chorus
e|-------------------------------------------------------------------------|
B|-------------------------------------------------------------------------|
G|-------------------------------------------------------------------------|
D|--0-0-0-0-0-0-2-2-2-2-2-2-3-3-3-3-3-3------------------------------------|
A|--0-0-0-0-0-0-2-2-2-2-2-2-3-3-3-3-3-3---x2-------------------------------|
E|--0-0-0-0-0-0-2-2-2-2-2-2-3-3-3-3-3-3------------------------------------|

Chorus
e|-------------------------------------------------------------------------|
B|-------------------------------------------------------------------------|
G|-------------------------------------------------------------------------|
D|--0-0-0-0-0-0-0-0-0-3-3-3-3-3-3-3-3-3------------------------------------|
A|--0-0-0-0-0-0-0-0-0-3-3-3-3-3-3-3-3-3---x2-------------------------------|
E|--0-0-0-0-0-0-0-0-0-3-3-3-3-3-3-3-3-3------------------------------------|

e|-------------------------------------------------------------------------|
B|-------------------------------------------------------------------------|
G|-------------------------------------------------------------------------|
D|--7-7-7-7-7-7-7-7-5-5-3-3-3-3-3-3-3-3------------------------------------|
A|--7-7-7-7-7-7-7-7-5-5-3-3-3-3-3-3-3-3------------------------------------|
E|--7-7-7-7-7-7-7-7-5-5-3-3-3-3-3-3-3-3------------------------------------|

e|-------------------------------------------------------------------------|
B|-------------------------------------------------------------------------|
G|-------------------------------------------------------------------------|
D|--0-0-0-0-0-0-0-0-0-3-3-3-3-3-3-3-3-3------------------------------------|
A|--0-0-0-0-0-0-0-0-0-3-3-3-3-3-3-3-3-3----x2------------------------------|
E|--0-0-0-0-0-0-0-0-0-3-3-3-3-3-3-3-3-3------------------------------------|

e|-------------------------------------------------------------------------|
B|-------------------------------------------------------------------------|
G|-------------------------------------------------------------------------|
D|--7-7-7-7-7-7-7-7-5-5-3-3-3-3-3-3-3-3------------------------------------|
A|--7-7-7-7-7-7-7-7-5-5-3-3-3-3-3-3-3-3------------------------------------|
E|--7-7-7-7-7-7-7-7-5-5-3-3-3-3-3-3-3-3------------------------------------|

Breakdown
e|-------------------------------------------------------------------------|
B|--5-8--5-8--5-8----------------------------------------------------------|
G|---5----5----5-----------------------------------------------------------|
D|-------------------------------------------------------------------------|
A|-------------------------------------------------------------------------|
E|-------------------------------------------------------------------------|

e|-------------------------------------------------------------------------|
B|-------------------------------------------------------------------------|
G|-------------------------------------------------------------------------|
D|--7-7-7-7-7-7-5-5-3-3-3-3-3-3--------------------------------------------|
A|--7-7-7-7-7-7-5-5-3-3-3-3-3-3--Just mess with that til the end-----------|
E|--7-7-7-7-7-7-5-5-3-3-3-3-3-3--------------------------------------------|


| /  slide up
| \  slide down
| h  hammer-on
| p  pull-off
| ~  vibrato
| +  harmonic
| x  Mute note
============================================================================