Senses Fail - Stephen Chords & Tabs

 

Stephen Chords & Tabs

Senses Fail Chords & Tabs

Version: 1 Type: Tab 0 ratings
1 star 2 stars 3 stars 4 stars 5 stars
comments

Stephen Tab

   
B]-------------------------
E]-------------------------
G]----5--5--5--5--5--5--5-5
D]---7--7--7--7--7--7--7--7
A]--7--7--7--7--7--7--7--7-
E]-------------------------

GOODBYE!!

E]--------------------------------------------------------
B]--------------------------------------------------------
G]--------------------------------------------------------
D]--------------------------------------------------------
A]7-7-7-7-7--7-7-7-7-7--7-7-7--5-5-5-5-5--5-5-5-5-5--5-5-5
E]5-5-5-5-5--5-5-5-5-5--5-5-5--3-3-3-3-3--3-3-3-3-3--3-3-3

I Dnt kno guitar two yet and i dnt even think guitar 1 is all that accurate but
i needed to put sumthin un here so i could submit the beginning
(which is pretty accurate)
Not to sure bout the verse either.......sry
[ Tab from: http://www.guitartabs.cc/tabs/s/senses_fail/stephen_tab.html ]
E]-------------------------------5---5---5-------------------------
B]----8-8-8--8---5--1-1-1-1--1-----5--5-5---5--5--1--1-1-1---1-----
G]---0-0-0------0--0-0-0----0-----5----5---5--0--0--0-0-----0------
D]---------0---7--3-----3--3--------------0--7--3-------3--3-------
A]--0--------------------------------------------------------------
E]-----------------------------------------------------------------

All embraced under one common thought and song (that the body si dead, but life lives on)

E]-----------------------------------------------------------------
B]-----------------------------------------------------------------
G]-----------------------------------------------------------------
D]-----------------------------------------------------------------
A]-0-0-0-0-0-0-0-0-0-0-0-0-0-0-0-0--2-2-2-2-2-2-2-2-2-2-2-2-2-2-2-2
E]-0-0-0-0-0-0-0-0-0-0-0-0-0-0-0-0--2-2-2-2-2-2-2-2-2-2-2-2-2-2-2-2

E]--------------------------------
B]--------------------------------
G]--------------------------------
D]--------------------------------
A]-3-3-3-3-3-3-3-3-3-3-3-3-3-3-3-3
E]-3-3-3-3-3-3-3-3-3-3-3-3-3-3-3-3
Comments