Senses Fail - Slowdance Chords & Tabs

 

Slowdance Chords & Tabs

Senses Fail Chords & Tabs

Version: 2 Type: Tab 0 ratings
1 star 2 stars 3 stars 4 stars 5 stars
comments

Slowdance Tab

   
Song: Slow Dance
Artist: Senses Fail
Album: Let It Enfold You
Tuning: Standard Drop-D
Tabber: Sensesfail18svn
E-mail: sensesfail18svn@aol.com


Intro - Guitar Two only.

Verse - "If you pull too hard, thent he string will break..." (X4)
e|---------------------------------------|
 |---------------------------------------|
 |-5555-555-555-5555---------------------|
 |-5555-555-555-5555-2222-222-222-2222---|
 |-3333-333-333-3333-2222-222-222-2222---|
D|-------------------2222-222-222-2222---|
PM .... ... ... .... .... ... ... ....

Chorus - "So how can we find ourselves?..."
e|-------------------------------------------------------------------------|
 |-------------------------------------------------------------------------|
 |----------------------------------5555-55555-55555-----------------------|
 |-5555555555-0000000000-2222222222-5555-55555-55555-5555555555-0000000000-|
 |-5555555555-0000000000-2222222222-3333-33333-33333-5555555555-0000000000-|
D|-5555555555-0000000000-2222222222------------------5555555555-0000000000-|
PM                                                                    ....

Chorus Cont.
e|-----------------------------|
 |-----------------------------|
 |------------5555-55555-55555-|
 |-2222222222-5555-55555-55555-|
 |-2222222222-3333-33333-33333-|
D|-2222222222------------------|

Verse 2 - "Fill the glass to the brim..."
e|-       -------------------------------------------------------|
 |-       -------------------------------------------------------|
 |- Pause -------------------5555-555-555-5555-------------------|
 |-       -2222-222-222-2222-5555-555-555-5555-2222-222-222-2222-|
 |-       -2222-222-222-2222-3333-333-333-3333-2222-222-222-2222-|
D|-       -2222-222-222-2222-------------------2222-222-222-2222-|

Verse 2 Cont. - "Sharpening the knife, and it will be so blunt"
e|---------------------------------------------------------------------|
 |---------------------------------------------------------------------|
 |-55555-<5>--<9>--<7>--<12>-------------5555-<5>--<9>--<7>--<12>------|
 |-55555-----harmonics-------2222--------5555---------------------2-2>-|
 |-33333---------------------2222--------3333---------------------2-2>-|
D|---------------------------2222---------------------------------2-2>-|
PM                                                                  .

Repeat Chorus

Bridge - "We are one..."
e|-------------------------------------------|
 |-------------------------------------------|
 |-------------------------------------------|
 |-22-222-2-222-222-0-2-55-555-5-555-555-5-0-|(X2)
 |-22-222-2-222-222-0-2-55-555-5-555-555-5-0-|
D|-22-222-2-222-222-0-2-55-555-5-555-555-5-0-|
PM .. ... . ... ... . . .. ... . ... ... . .

Bridge Cont. - (Played in triplets)
e|-----------------------------------------|
 |-----------------------------------------|
 |-----------------------------------------|
 |-222-222--222-222--222-222--222-222-5555-|
 |-222-222--222-222--222-222--222-222-5555-|
D|-222-222--222-222--222-222--222-222-5555-|
PM ... ...  ... ...  ... ...  ... ... ....

Bridge Cont. - (Played in triplets)
e|---------------------------------------|
 |---------------------------------------|
 |---------------------------------------|
 |-222-222--222-222--222-222--222-222-5~-|
 |-222-222--222-222--222-222--222-222-5~-|
D|-222-222--222-222--222-222--222-222-5~-|
PM ... ...  ... ...  ... ...  ... ... .

Repeat Chorus (X2)

Ending
e|----------------|
 |----------------|
 |-------------4--|
 |-222-2-2-222-2--|
 |-222-2-2-222-2--|
D|-222-2-2-222-2\-|

Intro
e|-0~----0~----0~----0~----|
 |-0~----0~----0~----0~----|
 |-5~----0~----5~----0~----|
 |-5~----2~----5~----2~----|
 |-3~----2~----3~----2~----|
D|-------2~----------2~----|
[ Tab from: http://www.guitartabs.cc/tabs/s/senses_fail/slowdance_tab_ver_2.html ]
Verse - "If you pull too hard, then the string will break..."
e|-       --------------3322--------------------------------3322-|
 |-       -3333-333-333-3333-8888-888-888-7777-3333-333-333-3333-|
 |- Pause -0000-000-000-0000-7777-777-777-7777-0000-000-000-0000-|
 |-       -------------------------------------------------------|
 |-       -------------------------------------------------------|
D|-       -------------------------------------------------------|
PM         .... ... ...      .... ... ... .... .... ... ... ....

Verse Cont.
e|--------------------------------3322----------------------------222-3322-|
 |-8888-888-888-7777-3333-333-333-3333-8888-888-888-7777-3333-333-333-3333-|
 |-7777-777-777-7777-0000-000-000-0000-7777-777-777-7777-0000-000-000-0000-|
 |-------------------------------------------------------------------------|
 |-------------------------------------------------------------------------|
D|-------------------------------------------------------------------------|
PM .... ... ... .... .... ... ...      .... ... ... .... .... ... ... ....

Chorus - "So how can we find ourselves?" (X2)
e|-101010-7-88-7-101010-7-88-7-------------------------------|
 |-8-8-8--8-88-8-8-8-8--8-88-8-555555-7777-88-555555-8888-77-|
 |-7-7-7--7-77-7-7-7-7--7-77-7-777777-7777-77-555555-5555-55-|
 |-----------------------------------------------------------|
 |-----------------------------------------------------------|
D|-----------------------------------------------------------|

Verse 2 - "Fill the glass to the brim..."
e|--------------------------------3322----------------------------222-3322-|
 |-------------------3333-333-333-3333-8888-888-888-7777-3333-333-333-3333-|
 |-5555-555-555------0000-000-000-0000-7777-777-777-7777-0000-000-000-0000-|
 |-5555-555-555------------------------------------------------------------|
 |-3333-333-333------------------------------------------------------------|
D|-------------------------------------------------------------------------|
PM .... ... ...      .... ... ... .... .... ... ... .... .... ... ... ....

Verse 2 Cont. - "Sharpening the knife..."
e|--------------------------------------------------------------|
 |--------------------------------------------------------------|
 |-55555------------1212-1414-1111-5555-------------------------|
 |-55555-------2222-x-x--x-x--x-x--5555-------2-222222222222222-|
 |-33333-------2222-1010-1212-9-9--3333-------2-222222222222222-|
D|-------------2222---------------------------2-222222222222222-|
PM                                              ...............

Repeat Chorus

Bridge - "We are one..." I'm not too sure about this. (some effect)(X4)
e|----------------------------------------------------------------|
 |----------------------------------------------------------------|
 |-0-7-9--0-7-9--7-9-0-7-9--7-9-7--0-4-5--0-4-5--4-5-0-4-5--4-5-4-|
 |----------------------------------------------------------------|
 |----------------------------------------------------------------|
D|----------------------------------------------------------------|

Play Chorus

Play this while other guitar repeats chorus.
Alternated Chorus - "Don't try too hard..."
e|-------------------------------------------------------------------------|
 |-------------------------------------------------------------------------|
 |-12121212121212121212-11111111-9999-777777-11111111-12121212121212121212-|
 |-x-x-x-x-x-x-x-x-x-x--x-x-x-x--xxxx-xxxxxx-x-x-x-x--x-x-x-x-x-x-x-x-x-x--|
 |-10101010101010101010-9-9-9-9--7777-555555-9-9-9-9--10101010101010101010-|
D|-------------------------------------------------------------------------|

Alternate Chorus Cont.
e|-------------------------------------------------------------------------|
 |-------------------------------------------------------------------------|
 |-14141414-12121212121212121212-1616161616161616-1414-1717-16161616161616-|
 |-x-x-x-x--x-x-x-x-x-x-x-x-x-x--x-x-x-x-x-x-x-x--x-x--x-x--x-x-x-x-x-x-x--|
 |-12121212-10101010101010101010-1414141414141414-1212-1515-14141414141414-|
D|-------------------------------------------------------------------------|


Alternate Chorus Cont.
e|--------------------------------------------------------------|
 |--------------------------------------------------------------|
 |-12121212-1919191919191919-17171717-1616161616161616-14141414-|
 |-x-x-x-x--x-x-x-x-x-x-x-x--x-x-x-x--x-x-x-x-x-x-x-x--x-x-x-x--|
 |-10101010-1717171717171717-15151515-1414141414141414-12121212-|
D|--------------------------------------------------------------|

Ending
e|----------------|
 |----------------|
 |-444-4-4-444-4--|
 |-222-2-2-222-2--|
 |-222-2-2-222-2--|
D|-222-2-2-222-2\-|

 Thanks and Enjoy
 SensesFail18svn
Comments