Senses Fail - Slowdance Chords & Tabs

 

Slowdance Chords & Tabs

Senses Fail Chords & Tabs

Version: 1 Type: Bass Tab 0 ratings
1 star 2 stars 3 stars 4 stars 5 stars
comments

Slowdance Bass Tab

Guitar intro

Verse 1 x4     (14sec in)
G|----------------------------------------------------|
D|----------------------------------------------------|
A|--3-3-3-3--3-3-3--3-3-3-----------------------------|
D|---------------------------2-2-2-2--2-2-2--2-2-2----|
        

Chorus x2
G|-----------------------------------------------------------------------|
D|-----------------------------------------------------------------------|
A|-------------------------------------------------------3-3-3-3-3-3-3-3-|
D|-5-5-5-5-5-5-5-5--2-2-2-2-2-2-2-XX-XX-2-2-2-2-2-2-2-2-2----------------|


Verse 2
G|---------------------------------------------------------|
D|---------------------------------------------------------|
A|--3-3-3-3--3-3-3--3-3-3----------------------------------|x2
D|--------------------------2-2-2-2--2-2-2--2-2-2----------|
[ Tab from: http://www.guitartabs.cc/tabs/s/senses_fail/slowdance_btab.html ]
G|----------------------------------------------------------------------|
D|----------------------------------------------------------------------|
A|--3-3-3--------------3-3-3----------------------------------------------|
D|-----------15/-2-2-2-----------15/--2---2-2-2-2-2-2-2---2----2----2---|
                                                         
Chorus x2
G|-----------------------------------------------------------------------|
D|-----------------------------------------------------------------------|
A|-------------------------------------------------------3-3-3-3-3-3-3-3-|
D|-5-5-5-5-5-5-5-5--2-2-2-2-2-2-2-XX-XX-2-2-2-2-2-2-2-2-2----------------|

Bridge 
G|-----------------------------------------------------------------|
D|-----------------------------------------------------------------|
A|-----------------------------------------------------------------|
D|--2-2-222--2-2-2-2-222-2-2-5-5-555--5-5-5-5-555--5-5-2-2-222-----|

G|-----------------------------------------------------------------|
D|-----------------------------------------------------------------|
A|-----------------------------------------------------------------|
D|--2-2-2-2-222--2-2-5-5-555--5-5-5-5-555--------------------------|

G|-----------------------------------------------------------------------|
D|-----------------------------------------------------------------------|
A|-----------------------------------------------------------------------|
D|--2-2-2--2-2-2----2-2-2--2-2-2-XX-XX-2-2-2---2-2-2--5-5-5--5-5-5---5~--|


Chorus X4
G|-------------------------------------------------------------------------|
D|-------------------------------------------------------------------------|
A|-------------------------------------------------------3-3-3-3-3-3-3-3---|
D|-5-5-5-5-5-5-5-5--2-2-2-2-2-2-2-XX-XX-2-2-2-2-2-2-2-2-2------------------|

Ending
G|--------------------------------------|
D|--------------------------------------|
A|--------------------------------------|
D|--2-2-2-----2----2-2-2-2--2-----------|
Comments