Senses Fail - Rum Is For Drinking Not For Burning Chords & Tabs

 

Rum Is For Drinking Not For Burning Chords & Tabs

Senses Fail Chords & Tabs

Version: 2 Type: Tab 0 ratings
1 star 2 stars 3 stars 4 stars 5 stars
comments

Rum Is For Drinking Not For Burning Tab

   
I hope this is correct, because EVERY SINGLE one of my other Senses Fail Tabs were rated 5 stars!!!
*****************************************************************************
SONG: RUM IS FOR DRINKING, NOT FOR BURNING
BAND: SENSES FAIL
TABBER: J DIZZLE
DROP D TUNING

INTRO
Guitar 1
E|--------------------------------------------------------
B|--------------------------------------------------------
G|-101010-999-121212-101010-9-10---10-10-9999-555555-10-9-
D|-xxxxx--xxx-xxxxxx-x-x-x--x--x---x--x--xxxx-xxxxxx-x--x-
A|-8-8-8--777-101010-8-8-8--7--8---8--8--7777-333333-8--7-
D|--------------------------------------------------------

Guitar 2
E|--------------------------------------------      
B|--------------------------------------------     
G|--------------------------------------------    
D|0-00000000000-8-8888888-10-1010101010101010-   
A|0-00000000000-8-8888888-10-1010101010101010-  
D|0-00000000000-8-8888888-10-1010101010101010- 

ALL THAT TWICE

Verse
Both Guitars

Let This Ring Until The Singing starts
E|-------------       \
B|-------------        \
G|-------------         \
D|-0~----------          \
A|-0~----------           \
D|-0~----------            \
                           / X4 
E|------------------      /  But The 4th Time Around They
B|------------------     /   P.M. The 3rd and 2nd Frets
G|------------------    /
D|-8-8------3-3-2-2-   /
A|-8-8------3-3-2-2-  /
D|-8-8------3-3-2-2- /

CHORUS
Guitar 1
E|------------8-8-10-10------------
B|3-3-6-6-5-5-----------10-10-8-10-
G|---------------------------------
D|--------------------------------- X8 I THINK
A|---------------------------------
D|---------------------------------
[ Tab from: http://www.guitartabs.cc/tabs/s/senses_fail/rum_is_for_drinking_not_for_burning_tab_ver_2.html ]
Guitar 2
E|--------------------------------------------------------------------------
B|--------------------------------------------------------------------------
G|--------------------------------------------------------------------------
D|0-0000000000000-8-8888888888888-3-3333333333333-1010101010101010-8888-1010
A|0-0000000000000-8-8888888888888-3-3333333333333-1010101010101010-8888-1010
D|0-0000000000000-8-8888888888888-3-3333333333333-1010101010101010-8888-1010
That Times 2

VERSE 
CHORUS

And To My Damsel in Distress...
Guitar 2 *PICK SCRAPE*

Guitar 1
E|------------------------------------------------------
B|------------------------------------------------------
G|10-101010-9-10-10-101010-9-10-14-1414141414-101010-555
D|x--x-x-x--x-x--x--x-x-x--x-x--x--x-x-x-x-x--x-x-x--xxx
A|8--8-8-8--7-8--8--8-8-8--7-8--12-1212121212-8-8-8--333
D|------------------------------------------------------ X2

Guitar 2
E|-----------------------------------
B|-----------------------------------
G|-----------------------------------
D|0-0-000-0-0-000-8-8-888-101010-888-
A|0-0-000-0-0-000-8-8-888-101010-888-
D|0-0-000-0-0-000-8-8-888-101010-888- X2

CHORUS

OUTRO
Guitar 1's is the chorus, but the last part is like so...
E|------------5-5-3-3-------------
B|3-3-6-6-5-5---------6-6-5-6-5-3- Let Last Note Echo A Lot
G|--------------------------------
D|--------------------------------
A|--------------------------------
D|--------------------------------

Guitar 2
E|------------5-5-3-3-----------
B|3-3-6-6-5-5---------6-6-5-6-5-
G|------------------------------
D|------------------------------
A|------------------------------
D|------------------------------ X3
Comments