Senses Fail - Rum Is For Drinking Not For Burning Chords & Tabs

 

Rum Is For Drinking Not For Burning Chords & Tabs

Senses Fail Chords & Tabs

Version: 2 Type: Bass Tab

Rum Is For Drinking Not For Burning Bass Tab

   
I noticed the other tab didnt have the little bass solos...so i figured them out and put them in here.
EASY SONG

~=let is ring
p=palm mute
h=hammer

G|-------------------------------------------------|
D|-------------------------------------------------|
A|-------------------------------------------------|x2
D|-000000000000-88888-1010101010-------------------|

(0:09)
G|-------------------------------------------------|
D|-------------------------------------------------|
A|-------------------------------------------------|x2
D|-0~----88-----33-22------------------------------|

(0:19)
G|-------------------------------------------------|
D|-------------------------------------------------|
A|-------------------------------------------------|
D|-0000000000-88888----3-2-------------------------|

(0:23)
G|-------------------------------------------------|
D|-------------------------------------------------|
A|-------------------------------------------------|
D|-0000000000-88888----33-22-----------------------|

(0:28)
G|-------------------------------------------------|
D|-------------------------------------------------|
A|-------------------------------------------------|x2
D|-00000000-88888888-33333333-1010101010-88-1010---|

(0:47)
G|-------------------------------------------------|
D|-------------------------------------------------|
A|-------------------------------------------------|x2
D|-0~----88-----33-22------------------------------|
[ Tab from: http://www.guitartabs.cc/tabs/s/senses_fail/rum_is_for_drinking_not_for_burning_btab_ver_2.html ]
(0:57)
G|-------------------------------------------------|
D|-------------------------------------------------|
A|-------------------------------------------------|
D|-0000000000-88888----3-2-------------------------|

(1:02)
G|-------------------------------------------------|
D|-------------------------------------------------|
A|-------------------------------------------------|
D|-0000000000-88888----33-22-----------------------|

(1:06)
G|-------------------------------------------------|
D|-------------------------------------------------|
A|-------------------------------------------------|x2
D|-00000000-88888888-33333333-1010101010-88-1010---|

(1:25 kinda fast)
G|-------------------------------------------------|
D|-------------------------------------------------|
A|-------------------------888---------------------|x4
D|-00000000----1012-88888------101010--------------|

(1:44)
G|-------------------------------------------------|
D|-------------------------------------------------|
A|-------------------------------------------------|x3
D|-00000000-88888888-33333333-1010101010-88-1010---|

(2:13)
G|-------------------------------------------------|
D|-------------------------------------------------|
A|---------------------------------------10-8--7-8-|
D|-00000000-88888888-33333333-1010101010-----------|

(2:22)
G|-------------------------------------------------|
D|-------------------------------------------------|
A|-------------------------------------------------|
D|-0~----0~----0p----------------------------------|

That's it have fun.