Senses Fail - One Eight Seven Chords & Tabs

 

One Eight Seven Chords & Tabs

Senses Fail Chords & Tabs

Version: 8 Type: Tab 0 ratings
1 star 2 stars 3 stars 4 stars 5 stars
comments

One Eight Seven Tab

--------------------------------------------------------------------
		SeNseS FaiL - One Eight Seven 
--------------------------------------------------------------------
Tabbed by: Brad

Tuning: Drop D (eBGDAD)

	= Let note ring

			Guitar 1
0:00 (Intro)
e|---------0---------------0---------------0---------------0--------|
B|-----3-----3---3-----3-----3---3-----3-----3---3-----3-----3---3--|
G|-2-2---2-----2---4-4---4-----4---0-0---0-----0---0-0---0-----0----|
D|------------------------------------------------------------------|  x14
A|------------------------------------------------------------------|
D|------------------------------------------------------------------|

1:18 (Verse)
e|----------------------------------------------------------------|
B|----------------------------------------------------------------|
G|----------------------------------------------------------------|
D|-0-0-0-0-0-0-0-0-9-9-9-9-9-9-9-9-5-5-5-5-5-5-5-5-5-5-5---5-5-5--|  x4
A|-0-0-0-0-0-0-0-0-9-9-9-9-9-9-9-9-5-5-5-5-5-5-5-5-5-5-5---5-5-5--|
D|-0-0-0-0-0-0-0-0-9-9-9-9-9-9-9-9-5-5-5-5-5-5-5-5-5-5-5---5-5-5--|
PM ...................................................     ...
	
1:40 (Chorus)
e|----------------------------------------------------------------------|
B|----------------------------------------------------------------------|
G|----------------------------------------------------------------------|
D|-9999999999999999-5555555555555555-0000000000000000-7777777777777777--|  x2
A|-9999999999999999-5555555555555555-0000000000000000-7777777777777777--|
D|-9999999999999999-5555555555555555-0000000000000000-7777777777777777--|

2:06 (Bridge)
e|----------------|
B|----------------|
G|----------------|
D|-9999999999999--|
A|-9999999999999--|
D|-9999999999999--|
PM.............

SLIDE: 2:11

2:12 (Verse)
e|----------------------------------------------------------------|
B|----------------------------------------------------------------|
G|----------------------------------------------------------------|
D|-0-0-0-0-0-0-0-0-9-9-9-9-9-9-9-9-5-5-5-5-5-5-5-5-5-5-5---5-5-5--|  x3
A|-0-0-0-0-0-0-0-0-9-9-9-9-9-9-9-9-5-5-5-5-5-5-5-5-5-5-5---5-5-5--|
D|-0-0-0-0-0-0-0-0-9-9-9-9-9-9-9-9-5-5-5-5-5-5-5-5-5-5-5---5-5-5--|
PM ...................................................     ...

2:28 (Chorus)
e|----------------------------------------------------------------------|
B|----------------------------------------------------------------------|
G|----------------------------------------------------------------------|
D|-9999999999999999-5555555555555555-0000000000000000-7777777777777777--|  x2
A|-9999999999999999-5555555555555555-0000000000000000-7777777777777777--|
D|-9999999999999999-5555555555555555-0000000000000000-7777777777777777--|

2:48 (Bridge)
e|---------------------|
B|---------------------|
G|---------------------|
D|-99999999999999-999--|
A|-99999999999999-999--|
D|-99999999999999-999--|
PM...............  

2:51 (Chorus)
e|----------------------------------------------------------------------|
B|----------------------------------------------------------------------|
G|----------------------------------------------------------------------|
D|-9999999999999999-5555555555-------0000000000000000-7777777777777777--|  x4
A|-9999999999999999-5555555555-PAUSE-0000000000000000-7777777777777777--|
D|-9999999999999999-5555555555-------0000000000000000-7777777777777777--|
	
3:30 (Chorus)
e|----------------------------------------------------------------------|
B|----------------------------------------------------------------------|
G|----------------------------------------------------------------------|
D|-9999999999999999-5555555555555555-0000000000000000-7777777777777777--|  x2
A|-9999999999999999-5555555555555555-0000000000000000-7777777777777777--|
D|-9999999999999999-5555555555555555-0000000000000000-7777777777777777--|

3:50 (End)
e|-----------------------------------|
B|-----------------------------------|
G|-----------------------------------|
D|-9===============================--|
A|-9===============================--|
D|-9===============================--|


			Guitar 2
0:22 (Intro)
e|-12--12--12--12--10--10--10--10--9---9---9---9---9---9---9---9----|
B|---10--10--10--10--10--10--10--10-10--10--10--10--10--10--10--10--|
G|------------------------------------------------------------------| 
D|------------------------------------------------------------------|  x8
A|------------------------------------------------------------------|
D|------------------------------------------------------------------|

1:18 (Verse)
e|----------------------------------------------------------------|
B|----------------------------------------------------------------|
G|----------------------------------------------------------------|
D|-0-0-0-0-0-0-0-0-9-9-9-9-9-9-9-9-5-5-5-5-5-5-5-5-5-5-5---5-5-5--|  x4
A|-0-0-0-0-0-0-0-0-9-9-9-9-9-9-9-9-5-5-5-5-5-5-5-5-5-5-5---5-5-5--|
D|-0-0-0-0-0-0-0-0-9-9-9-9-9-9-9-9-5-5-5-5-5-5-5-5-5-5-5---5-5-5--|
PM ...................................................     ...

1:46 (Chorus)
e|------------------------------------------------------------------------------------|
B|------------------------------------------------------------------------------------|
G|-7-7-7-7--9-9-9-9--11-11-11-11--12-12-12-12------7-7-7-7--9-9-9-9--7-7-7-7-7-7-7-7--|
D|------------------------------------------------------------------------------------|
A|-5-5-5-5--7-7-7-7---9--9--9--9--10-10-10-10------5-5-5-5--7-7-7-7--5-5-5-5-5-5-5-5--|
D|------------------------------------------------------------------------------------|
[ Tab from: http://www.guitartabs.cc/tabs/s/senses_fail/one_eight_seven_tab_ver_8.html ]
e|------------------------------------------------------------------------------------|
B|------------------------------------------------------------------------------------|
G|-11-11-11-11-11-11-11-11-11-11-11-11-11-11-11-11-7-7-7-7-7-7-7-7-7-7-7-7-7-7-7-7-7--|
D|------------------------------------------------------------------------------------|
A|-10-10-10-10-10-10-10-10-10-10-10-10-10-10-10-10-5-5-5-5-5-5-5-5-5-5-5-5-5-5-5-5-5--|
D|------------------------------------------------------------------------------------|

e|------------------------------------------------------------------------------------|
B|------------------------------------------------------------------------------------|
G|-7-7-7-7--9-9-9-9--11-11-11-11--12-12-12-12------7-7-7-7--9-9-9-9--7-7-7-7-7-7-7-7--|
D|------------------------------------------------------------------------------------|
A|-5-5-5-5--7-7-7-7---9--9--9--9--10-10-10-10------5-5-5-5--7-7-7-7--5-5-5-5-5-5-5-5--|
D|------------------------------------------------------------------------------------|

2:01 (Bridge)
e|---------0---------------0---------------0---------------0--------|
B|-----3-----3---3-----3-----3---3-----3-----3---3-----3-----3---3--|
G|-2-2---2-----2---4-4---4-----4---0-0---0-----0---0-0---0-----0----|
D|------------------------------------------------------------------|
A|------------------------------------------------------------------|
D|------------------------------------------------------------------|

2:17 (Verse)
e|----------------|
B|----------------|
G|-77-7h9-9p7-77--|
D|----------------|  x8
A|----------------|
D|----------------|

2:33 (Chorus)
e|------------------------------------------------------------------------------------|
B|------------------------------------------------------------------------------------|
G|-7-7-7-7--9-9-9-9--11-11-11-11--12-12-12-12------7-7-7-7--9-9-9-9--7-7-7-7-7-7-7-7--|
D|------------------------------------------------------------------------------------|
A|-5-5-5-5--7-7-7-7---9--9--9--9--10-10-10-10------5-5-5-5--7-7-7-7--5-5-5-5-5-5-5-5--|
D|------------------------------------------------------------------------------------|

e|------------------------------------------------------------------------------------|
B|------------------------------------------------------------------------------------|
G|-11-11-11-11-11-11-11-11-11-11-11-11-11-11-11-11-7-7-7-7-7-7-7-7-7-7-7-7-7-7-7-7-7--|
D|------------------------------------------------------------------------------------|
A|-10-10-10-10-10-10-10-10-10-10-10-10-10-10-10-10-5-5-5-5-5-5-5-5-5-5-5-5-5-5-5-5-5--|
D|------------------------------------------------------------------------------------|

e|------------------------------------------------------------------------------------|
B|------------------------------------------------------------------------------------|
G|-7-7-7-7--9-9-9-9--11-11-11-11--12-12-12-12------7-7-7-7--9-9-9-9--7-7-7-7-7-7-7-7--|
D|------------------------------------------------------------------------------------|
A|-5-5-5-5--7-7-7-7---9--9--9--9--10-10-10-10------5-5-5-5--7-7-7-7--5-5-5-5-5-5-5-5--|
D|------------------------------------------------------------------------------------|

2:51 (Chorus)
e|------------------------------------------------------------------------------------
B|------------------------------------------------------------------------------------
G|-11-11-11-11-11-11-11-11-11-11-11-11-11-11-11-11-7-7-7-7-7-7-7-7-7-7-7-7-7---PAUSE--
D|------------------------------------------------------------------------------------
A|--9--9--9--9--9--9--9--9--9--9--9--9--9--9--9--9-5-5-5-5-5-5-5-5-5-5-5-5-5---------- 
D|------------------------------------------------------------------------------------
											
  --------------------------------------------------------------------------------------|
  --------------------------------------------------------------------------------------|
  -7-7-7-7--9-9-9-9--11-11-11-11--12-12-12-12--------7-7-7-7--9-9-9-9--7-7-7-7-7-7-7-7--|
  --------------------------------------------------------------------------------------|  x2
  -5-5-5-5--7-7-7-7---9--9--9--9--10-10-10-10--------5-5-5-5--7-7-7-7--5-5-5-5-5-5-5-5--|
  --------------------------------------------------------------------------------------|
	
3:11 (End)
e|-------------------------------------------------------------------------------------------|
B|-------------------------------------------------------------------------------------------|
G|-11-11-11-11-11-11-11-11--12-12-12-12--14-14-14-14--7-7-7-7-7-7-7-7--9-9-9-9--11-11-11-11--|
D|-------------------------------------------------------------------------------------------|
A|--9--9--9--9--9--9--9--9--10-10-10-10--12-12-12-12--5-5-5-5-5-5-5-5--7-7-7-7---9--9--9--9--|
D|-------------------------------------------------------------------------------------------|

  --------------------------------------------------------------------------------------|
  --------------------------------------------------------------------------------------|
  -7-7-7-7--9-9-9-9--11-11-11-11--12-12-12-12--------7-7-7-7--9-9-9-9--7-7-7-7-7-7-7-7--|
  --------------------------------------------------------------------------------------|  x2
  -5-5-5-5--7-7-7-7---9--9--9--9--10-10-10-10--------5-5-5-5--7-7-7-7--5-5-5-5-5-5-5-5--|
  --------------------------------------------------------------------------------------|

3:30 (End)
e|-----------------------------------------------------------------------------|
B|-----------------------------------------------------------------------------|
G|-14-14-14-14-14-14-14-14--12-12-12-12--11-11-11-11--9-9-9-9-7-7-7-7-7-7-7-7--|
D|-----------------------------------------------------------------------------|  x4
A|-12-12-12-12-12-12-12-12--10-10-10-10---9--9--9--9--7-7-7-7-5-5-5-5-5-5-5-5--|
D|-----------------------------------------------------------------------------|

3:50 (Outro)
e|----------------------------------------------------|
B|----------------------------------------------------|
G|-11-11-11-11-11-11-11-11--12-12-12-12--14-14-14-14--|
D|----------------------------------------------------|  x4
A|--9--9--9--9--9--9--9--9--10-10-10-10--12-12-12-12--|
D|----------------------------------------------------|

e|---------------------------------------|
B|---------------------------------------|
G|-11==================================--|
D|---------------------------------------|
A|---------------------------------------|
D|---------------------------------------|
Comments