Senses Fail - One Eight Seven Chords & Tabs

 

One Eight Seven Chords & Tabs

Senses Fail Chords & Tabs

Version: 7 Type: Tab 0 ratings
1 star 2 stars 3 stars 4 stars 5 stars
comments

One Eight Seven Tab

   
-------------------------------------------------------------------------------
	                one eight seven - senses fail
-------------------------------------------------------------------------------


Tabbed by: blinkblader86
Email: blinkblader86@yahoo.com

Tuning: dropped d

I'm in a band that covers this song and we pretty much have it down, enjoy!

                                 
                                   Guitar 1

Intro/verse:
e|---------0----------------0----------------0---------------0-------|
B|-----3-----3---3------3-----3----------3-----3---3-----3-----3---3-|
G|-2-2---2-----2----4-4---4-----2h4--0-0---0-----0---0-0---0-----0---|
D|-------------------------------------------------------------------|
A|-------------------------------------------------------------------|
D|-------------------------------------------------------------------|
   
This is where the distortion kicks in:
e|---------------------------------------|
B|---------------------------------------|
G|---------------------------------------|
D|-0-000000-999999-79-55555555-55-5-55-5-|x4
A|-0-000000-999999-79-55555555-55-5-55-5-|
D|-0-000000-999999-79-55555555-55-5-55-5-|
     ...... ...... .. ........ ..   ..

Chorus:
e|-----------------------------------------|
B|-----------------------------------------|
G|-----------------------------------------|
D|-999999999-555555555-000000000-444444444-|x2
A|-999999999-555555555-000000000-444444444-|
D|-999999999-555555555-000000000-444444444-|

  Then go back to the intro and play it once, then:
e|---------------------------------------------------------------|
B|---------------------------------------------------------------|
G|---------------------------------------------------------------|
D|-0-000000-9999-9--\--------------------------------------------|
A|-0-000000-9999-9--\(slide with your finger down the fretboard)-|
D|-0-000000-9999-9--\--------------------------------------------|
     ...... ....

  -Then play the "This is where the distortion kicks in" part 3 times
  -chorus x2

build up:
e|--------------------|
B|--------------------|
G|--------------------|
D|-444444444444-4-4-4-|
A|-444444444444-4-4-4-|
D|-444444444444-4-4-4-|
   ............   .

outro is the same as the chorus, it's played 6 times with pauses in the middle
the first 4 times
[ Tab from: http://www.guitartabs.cc/tabs/s/senses_fail/one_eight_seven_tab_ver_7.html ]
end on:
e|----------------------------------|
B|----------------------------------|
G|----------------------------------|
D|-9--9999-9999-9999-999-9----------|
A|-9--9999-9999-9999-999-9-let ring-|
D|-9--9999-9999-9999-999-9----------|
      .... .... .... ...


                               Guitar 2

verse:
e|-12--12--12--12---10--10--10--10---9--9--9--9---|
B|---10--10--10--10---10--10--10--10--10-10-10-10-|
G|------------------------------------------------|
D|------------------------------------------------|
A|------------------------------------------------|
D|------------------------------------------------|

  Now the chorus for the guitar 2 part is usually only played during the last 
part of the song, but then whoever is playing guitar 2 gets wicked bored, so 
just play it during the chorus too, it's fun!

Chorus/outro:
e|--------------------------------------------------|
B|--------------------------------------------------|
G|-11-1111111111-12121212-14141414--6-666666-7777-9-|
D|-x--x-x-x-x-x--x-x-x-x--x-x-x-x---x-xxxxxx-xxxx-x-|
A|-9--9-9-9-9-9--10101010-12121212--4-444444-5555-7-|
D|--------------------------------------------------|

Continued:
e|-------------------------------------------|
B|-------------------------------------------|
G|-------------------------------------------|
D|-777-999-111111-121212--6-666666-77777-666-|
A|-xxx-xxx-x-x-x--x-x-x---x-xxxxxx-xxxxx-xxx-|
D|-555-777-9-9-9--101010--4-444444-55555-444-|

This is the part when Buddy starts screaming "I wanna kill you":
e|------------------------------------------------------|
B|------------------------------------------------------|
G|-1414141414141414-12121212-11111111-9999-777777777777-|
D|-x-x-x-x-x-x-x-x--x-x-x-x--x-x-x-x--xxxx-xxxxxxxxxxxx-|
A|-1212121212121212-10101010-9-9-9-9--7777-555555555555-|
E|------------------------------------------------------|

This is the part where the drums stop and it's just Buddy screaming and the
guitars:
e|----------------------------------|
B|----------------------------------|
G|-11-111111111111-1212121212121212-|
D|-x--x-x-x-x-x-x--x-x-x-x-x-x-x-x--|x4
A|-9--9-9-9-9-9-9--1010101010101010-|
E|----------------------------------|

end on:
e|----|
B|----|
G|-11-|
D|-x--|
A|-9--|
E|----|

Questions or commentsare appreciated, thanks!

| /  slide up
| \  slide down
| h  hammer-on
| p  pull-off
| ~  vibrato
| +  harmonic
| x  Mute note
===============================================================================
Comments