Senses Fail - One Eight Seven Chords & Tabs

 

One Eight Seven Chords & Tabs

Senses Fail Chords & Tabs

Version: 4 Type: Tab 0 ratings
1 star 2 stars 3 stars 4 stars 5 stars
comments

One Eight Seven Tab

Tabbed by:ME!
Email: halfpipe_182babe@hotmail.com

This is a great song, sorry I don't have the rest of it right now,
I'll maybe tab it out later....

e|---------0-----------------------------------------------------------------|
B|-----3-----3---3-----------------------------------------------------------|
G|-2-2---2-----2-------------------------------------------------------------|
D|---------------------------------------------------------------------------|
A|---------------------------------------------------------------------------|
E|---------------------------------------------------------------------------|
[ Tab from: http://www.guitartabs.cc/tabs/s/senses_fail/one_eight_seven_tab_ver_4.html ]
e|---------0-----------------------------------------------------------------|
B|-----3-----3---------------------------------------------------------------|
G|-4-4---4-----2/4-----------------------------------------------------------|
D|---------------------------------------------------------------------------|
A|---------------------------------------------------------------------------|
E|---------------------------------------------------------------------------|

e|---------0------------------0----------------------------------------------|
B|-----3-----3---3--------3-----3---3----------------------------------------|
G|-0-0---0-----0------0-0---0-----0------------------------------------------|
D|---------------------------------------------------------------------------|
A|---------------------------------------------------------------------------|
E|---------------------------------------------------------------------------|
Comments