Senses Fail - One Eight Seven Chords & Tabs

 

One Eight Seven Chords & Tabs

Senses Fail Chords & Tabs

Version: 1 Type: Bass Tab 0 ratings
1 star 2 stars 3 stars 4 stars 5 stars
comments

One Eight Seven Bass Tab

   
-------------------------------------------------------------------------------
			     ONE EIGHT SEVEN - Senses Fail
-------------------------------------------------------------------------------

Tabbed By : Justin Burdick
e-mail: gamegod81@hotmail.com

Tuning: standard

Every single tab I've seen for this has been missing all the correct fills and small
riffs in between things. Since I figured them all out and I play them, I figured id
make my tab which is 100% and includes everything. It can be played either standard
tuning or drop D.


0:33 x1
G|-----------------------------------------------------------------|
D|-----------------------------------------------------------------|
A|------------------------------------5h7p5------------------------|
D|-7/-0~-9~-7h9-5~-5-5h7-0~-9~-7h9-5~------------------------------|
then this x1
G|-----------------------------------------------------------------|
D|-----------------------------------------------------------------|
A|--------------------------------5-5h7p5--------------------------|
D|-0~-9~-7h9-5~-5x5-7-0~-9~-7h9-5~---------------------------------|
and finally this x1
G|-----------------------------------------------------------------|
D|-----------------------------------------------------------------|
A|------------------------------------5h7-5h7----------------------|
D|-0~-9~-7h9-5~-5h7-5h7--0~-9~-7h9-5~----------0~------------------|


PAUSE

THEN THIS x4
G|-----------------------------------------------------------------|
D|-----------------------------------------------------------------|
A|----------------------------5---5--------------------------------|
D|-00000-999999-7h9-5555555-55--55---------------------------------|
CHORUS x1			                     
G|-----------------------------------------------------------------|
D|-----------------------------------------------------------------|
A|-2-2-2-2-2-2-----------------------------------------------------|
D|------------5-5-5-5-5-5-6-7-5-4--0-0-0-0-0-0-4-4-4-4-4-4---------|
then this x1
G|-----------------------------------------------------------------|
D|-----------------------------------------------------------------|
A|-2-2-2-2-2-2-----------5h77-55h7---------------------------------|
D|------------5-5-5-5-5-5---------0-0-0-0-0-0-4-4-4-4-4-4----------|
[ Tab from: http://www.guitartabs.cc/tabs/s/senses_fail/one_eight_seven_btab.html ]
2nd VERSE x1
G|-----------------------------------------------------------------|
D|-----------------------------------------------------------------|
A|--------------------------------------------------5h7-7h9--------|
D|-7/-0000-99999x(pause)-9/0-0000-99999-7h9-5555555----------------|
then this x1
G|-----------------------------------------------------------------|
D|-----------------------------------------------------------------|
A|---------------------------5--5----------------------------------|
D|-0000-99999-7h9-55555555-5555---00000-99999-7h9-555555555-45/0--|
CHORUS x2			                 
G|-----------------------------------------------------------------|
D|-----------------------------------------------------------------|
A|-2-2-2-2-2-2-----------5h77-55h7---------------------------------|
D|------------5-5-5-5-5-5----------0-0-0-0-0-0-4-4--4-4-4-4--------|
Then
G|-----------------------------------------------------------------|
D|-----------------------------------------------------------------|
A|-2-2-2-2-2-2-----------5h77-55h7p5-------------------------------|
D|------------5-5-5-5-5-5-----------0-0-0-0-0-0-4-4-4-4-4-4--------|
Play this as it builds up
G|---------------|
D|---------------|
A|---------------|
D|-5555555-5-5---|

then this x4
G|-----------------------------------------------------------------------|
D|-----------------------------------------------------------------------|
A|-2-2-2-2-2-2-----------------------------------------------------------|
D|------------5-5-5-5-5-5-(rest)-0-0-0-0-0-0-4-4-4-4-4-54-3/9\3--3/9\3---|
then this x1
G|-----------------------------------------------------------------|
D|-----------------------------------------------------------------|
A|-2-2-2-2-2-2------------5h77-55h7--------------------------------|
D|------------5-5-5-5-5-5-----------0-0-0-0-0-0-4-4-4-4-4-4-4------|
then this x1
G|-----------------------------------------------------------------|
D|-----------------------------------------------------------------|
A|-2-2-2-2-2-2-----------------------------------------------------|
D|------------5-5-5-5-5-5--6-7-5-4-0-0-0-0-0-0-4-4-4-4-4---0~------|

Ending
come in with this x3
G|--------| 
D|--------|    
A|--------|	 
D|-5-5-55-|
then this x1
G|----------| 
D|----------|    
A|----------|	 
D|-5-5-55-0~|
Comments