Senses Fail - Martini Kiss Chords & Tabs

 

Martini Kiss Chords & Tabs

Senses Fail Chords & Tabs

Version: 3 Type: Tab 0 ratings
1 star 2 stars 3 stars 4 stars 5 stars
comments

Martini Kiss Tab

hey. this is gonna be like my 7th tab for SF? (im also r a c e t h e)
anyway lets do this..... and this is my own work so email if u wanna use it cause
its the best tab this songs got

Tuning: Drop D
Label: Drive Thru/Vagrant
Guitarists: Dave, Garett
Album: Let It Unfold You
Song: Martini Kiss

                              Guitar One(Garret)

Intro
e------------------------------------------------------|x2
b------------------------------------------------------|
g------------------------------------------------------|
d------------------------------------------------------|
a-----------8877----------------88101077---------------|
d-000888777------1010-000888777------------------------|
PM.......PM.........PM..........PM..........PM........

Intro 2

e-----------------------------------------------------|x2
b-101010--888--666-888-66-5~--------------------------|
g-----------------------------------------------------|
d-----------------------------------------------------|
a-----------------------------------------------------|
d-----------------------------------------------------|

Verse


e------------------------------------------------------|x2
b------------------------------------------------------|
g------------------------------------------------------|
d------------------------------------------------------|
a-----------8877----------------88101077---------------|
d-000888777------1010-000888777------------------------|
(below double up on the notes)(so it would be 16 times each note)
e------------------------------------------------------|x2
b------------------------------------------------------|
g------------------------------------------------------|
d-8-8-8-8-8-8-888x0-0-0-0-0-000000---------------------|
a-8-8-8-8-8-8-888x0-0-0-0-0-000000---------------------|
d-8-8-8-8-8-8-888x0-0-0-0-0-000000---------------------|
                  PM...............

Chorus


e-----------------------------------------------------|x4
b-101010--888--666-888-66-5~--------------------------|
g-----------------------------------------------------|
d-----------------------------------------------------|
a-----------------------------------------------------|
d-----------------------------------------------------|


Bridge

e--5--5--5---3--3--3--6--6--6--5-5-5-5---------------|x2
b---6--6--6---6--6--6---6-6--6--6-6-6-6--------------|
g----------------------------------------------------|
d----------------------------------------------------|
a----------------------------------------------------|
d----------------------------------------------------|


Middle


e-----------------------------------------------------|x4
b-101010--888--666-888-66-5~--------------------------|
g-xxxxxx--xxx--xxx-xxx-xx-----------------------------|
d-777777--555--333-555-33-----------------------------|
a-----------------------------------------------------|
d-----------------------------------------------------|

e-----------------------------------------------------|
b-----------------------------------------------------|
g-----------------------------------------------------|
d-0-8-7--10-10----------------------------------------|
a-0-8-8--8--7-----------------------------------------|
d-0-8-7--------10~------------------------------------|


e-----------------------------------------------------|
b-----------------------------------------------------|
g-1515151515151515-1717171717171717-000-000-000-------|
d-xxxxxxxxxxxxxxxx-xxxxxxxxxxxxxxxx-000-000-000-------|
a-1313131313131313-1515151515151515-000-000-000-------|
d-----------------------------------------------------|



                             Guitar 2(dave)

(gradual build up) Intro
e--------------------------------------------------|
b--------------------------------------------------|
g--------------------------------------------------|
d-101010101010101010-------------------------------|
a-000000000000000000-------------------------------|
d-000000000000000000-------------------------------|
 

Intro 2
e--------------------------------------------------|
b--------------------------------------------------|
g--------------------------------------------------|
d-1010101010101010-1010101010101010----------------|
a-8-8-8-8-8-8-8888-8-8-8-8-8-8-8888----------------|
d-8-8-8-8-8-8-8888-8-8-8-8-8-8-8888--12/-----------|


e--------------------------------------------------|
b--------------------------------------------------|
g--------------------10109-9-----------------------|
d-101010101010101010-x-x-x-x-----------------------|
a-000000000000000000-8-8-7-7-----------------------|
d-000000000000000000-------------------------------|

Harmonization

e-888-666-5~-666-55-3~---------------------------|x2
b------------------------------------------------|
g------------------------------------------------|
d------------------------------------------------|
a------------------------------------------------|
d------------------------------------------------|

Verse

e-------------------------------------------------|
b-------------------------------------------------|
g-------------------------------------------------|
d-0~----------------------------------------------|
a-0~----------------------------------------------|
d-0~----------------------------------------------|


(below double up on the notes)(so it would be 16 times each note)
e------------------------------------------------------|x2
b------------------------------------------------------|
g------------------------------------------------------|
d-8-8-8-8-8-8-888x0-0-0-0-0-000000---------------------|
a-8-8-8-8-8-8-888x0-0-0-0-0-000000---------------------|
d-8-8-8-8-8-8-888x0-0-0-0-0-000000---------------------|




(below double up on the notes)(so it would be 16 times each note)
e------------------------------------------------------|x2
b------------------------------------------------------|
g------------------------------------------------------|
d-8-8-8-8-8-8-888x0-0-0-0-0-000000---------------------|
a-8-8-8-8-8-8-888x0-0-0-0-0-000000---------------------|
d-8-8-8-8-8-8-888x0-0-0-0-0-000000---------------------|


Chorus 2(harminization)

[ Tab from: http://www.guitartabs.cc/tabs/s/senses_fail/martini_kiss_tab_ver_3.html ]
e-888-666-5~-666-55-3~---------------------------|x2
b------------------------------------------------|
g------------------------------------------------|
d------------------------------------------------|
a------------------------------------------------|
d------------------------------------------------|


Bridge

e------------------------------------------------|
b------------------------------------------------|
g------------------------------------------------|
d-33333332222222-88888888-0000000000-------------|
a-33333333333333-88888888-0000000000-------------|
d-33333332222222-88888888-0000000000-------------|


e------------------------------------------------|
b------------------------------------------------|
g------------------------------------------------|
d-33333332222222-88888888-0000000000-------------|
a-33333333333333-88888888-0000000000-------------|
d-33333332222222-88888888-0000000000-------------|


e--------------------------------------------------|
b--------------------------------------------------|
g--------------------------------------------------|
d-1010101010101010-1010101010101010----------------|
a-8-8-8-8-8-8-8888-8-8-8-8-8-8-8888----------------|
d-8-8-8-8-8-8-8888-8-8-8-8-8-8-8888--12/-----------|


e--------------------------------------------------|
b--------------------------------------------------|
g--------------------10109-9-----------------------|
d-101010101010101010-x-x-x-x-----------------------|
a-000000000000000000-8-8-7-7-----------------------|
d-000000000000000000-------------------------------|


(harminization)


e-888-666-5~-666-55-3~---------------------------|x2
b------------------------------------------------|
g------------------------------------------------|
d------------------------------------------------|
a------------------------------------------------|
d------------------------------------------------|


Verse 2

(below double up on the notes)(so it would be 16 times each note)
e------------------------------------------------------|x2
b------------------------------------------------------|
g------------------------------------------------------|
d-8-8-8-8-8-8-888x0-0-0-0-0-000000---------------------|
a-8-8-8-8-8-8-888x0-0-0-0-0-000000---------------------|
d-8-8-8-8-8-8-888x0-0-0-0-0-000000---------------------|



Chorus

e--------------------------------------------------|
b--------------------------------------------------|
g--------------------------------------------------|
d-1010101010101010-1010101010101010----------------|
a-8-8-8-8-8-8-8888-8-8-8-8-8-8-8888----------------|
d-8-8-8-8-8-8-8888-8-8-8-8-8-8-8888--12/-----------|


e--------------------------------------------------|
b--------------------------------------------------|
g--------------------10109-9-----------------------|
d-101010101010101010-x-x-x-x-----------------------|
a-000000000000000000-8-8-7-7-----------------------|
d-000000000000000000-------------------------------|



(harminization)


e-888-666-5~-666-55-3~---------------------------|x2
b------------------------------------------------|
g------------------------------------------------|
d------------------------------------------------|
a------------------------------------------------|
d------------------------------------------------|


Bridge


e------------------------------------------------|
b------------------------------------------------|
g------------------------------------------------|
d-33333332222222-88888888-0000000000-------------|
a-33333333333333-88888888-0000000000-------------|
d-33333332222222-88888888-0000000000-------------|


e------------------------------------------------|
b------------------------------------------------|
g------------------------------------------------|
d-33333332222222-88888888-0000000000-------------|
a-33333333333333-88888888-0000000000-------------|
d-33333332222222-88888888-0000000000-------------|


Middle(wait for garret to do the main riff with tremolo)


e-----------------------------------------------------|
b-----------------------------------------------------|
g-----------------------------------------------------|
d-0-8-7--10-10----------------------------------------|
a-0-8-8--8--7-----------------------------------------|
d-0-8-7--------10~------------------------------------|



e-----------------------------------------------------|
b-----------------------------------------------------|
g-----------------------------------------------------|
d-0-8-7--10-10----------------------------------------|
a-0-8-8--8--7-----------------------------------------|
d-0-8-7--------10~------------------------------------|


e-----------------------------------------------------|x2
b-----------------------------------------------------|
g-----------------------------------------------------|
d-88888888-101010101010-0-0-0000-0-0-0000-------------|
a-88888888-101010101010-0-0-0000-0-0-0000-------------|
d-88888888-101010101010-0-0-0000-0-0-0000-------------|
                        PM................
e------------------------------------------------------|
b------------------------------------------------------|
g------------------------------------------------------|
d-88888888-1010101010----------------------------------|
a-88888888-1010101010----------------------------------|
d-88888888-1010101010----------------------------------|

e------------------------------------------------------|
b------------------------------------------------------|
g------------------------------------------------------|
d-88888888-1010101010----------------------------------|
a-88888888-1010101010----------------------------------|
d-88888888-1010101010----------------------------------|


Outro

e--------------------------------------------------|
b--------------------------------------------------|
g--------------------------------------------------|
d-0-0--0--0-0000000-0-0-0-0--00000000--------------|
a-0-0--0--0-0000000-0-0-0-0--00000000--------------|
d-0-0--0--0-0000000-0-0-0-0--00000000--------------|
PM...    PM........................................


good, easy song. please rate, i put alot of time into this. thanks
Comments