Senses Fail - Let It Enfold You Chords & Tabs

 

Let It Enfold You Chords & Tabs

Senses Fail Chords & Tabs

Version: 4 Type: Tab 0 ratings
1 star 2 stars 3 stars 4 stars 5 stars
comments

Let It Enfold You Tab

   
Senses Fail
Let It Enfold You
Tabs gathered from ultimate-guitar.com and mxtabs.net.
All credit goes to the tabbers of each song.
Collected by:Jimmy
I collected these just to make it easier to get the whole album tab...
----------------------------------------------------------------------
Let It Enfold You
1.Tie Her Down
2.Lady In A Blue Dress
3.You're Cute When You Scream
4.Buried A Lie
5.Bite To Break Skin
6.Rum Is For Drinking, Not for Burning
7.Slowdance
8.Choke On This
9.NJ Falls Into The Atlantic
10.Let It Enfold You
11.Irony of Dying on Your Birthday
12.Angela Baker and My Obsession With Fire
13.Martini Kiss
------------------------------------------|


1.Tie Her Down


DROPPED D TUNING - Strings are (D A D G B E)

*= Harmonic
~= let ring

GUITAR 1'S PART
---------------

Intro: (2x)
e|------------------------------------|
B|-0----------0-----------------------|
G|-4----------4-----------------------|
D|-5----------5-----------------------|
A|-3----------2-----------------------|
D|------------------------------------|


Verse 1: (1x)

e|--------------------------------------------------------------------------------------------------|
B|-8-8-8-8---8-8-8---8-8-8-7-7-7-7--5-5-5-5--5-5-5--5-5-5-0-0-0-0---0-0-0-0--0-0-0--0-0-0--0-0-0-0--|
G|-7-7-7-7---7-7-7---7-7-7-7-7-7-7--7-7-7-7--7-7-7--7-7-7-7-7-7-7---0-0-0-0--0-0-0--0-0-0--0-0-0-0--|
D|--------------------------------------------------------------------------------------------------|
A|--------------------------------------------------------------------------------------------------|
D|--------------------------------------------------------------------------------------------------|


e|--------------------------------------------------------------------------------|
B|-8-8-8-8--8-8-8--8-8-8--7-7-7-7--0-0-0-0--0-0-0--0-0-0--0-0-0-0--5-5-5-5--5-5-5-|
G|-7-7-7-7--7-7-7--7-7-7--7-7-7-7--0-0-0-0--0-0-0--0-0-0--0-0-0-0--7-7-7-7--7-7-7-|
D|--------------------------------------------------------------------------------|
A|--------------------------------------------------------------------------------|
D|--------------------------------------------------------------------------------|

-------------------------|
-5-5-5-0-0-0-0--0-0-0-0--|
-7-7-7-7-7-7-7--0-0-0-0--|
-------------------------|
-------------------------|
-------------------------|


Chorus: (2x)
e|--0----0-----0----0---------0-----0-----0----0----------0-----0-----0--------0-----0-----0--------|
B|-15---12----13---12--------15----12----13---12----------8----10----12--------8----10----12--------|
G|--------------------------------------------------------------------------------------------------|
D|--------------------------------------------------------------------------------------------------|
A|--------------------------------------------------------------------------------------------------|
D|--------------------------------------------------------------------------------------------------|

Verse 2: (1x)
e|--------------------------------------------------------------------------------------------------|
B|-8-8-8-8---8-8-8---8-8-8-7-7-7-7--5-5-5-5--5-5-5--5-5-5-0-0-0-0---0-0-0-0--0-0-0--0-0-0--0-0-0-0--|
G|-7-7-7-7---7-7-7---7-7-7-7-7-7-7--7-7-7-7--7-7-7--7-7-7-7-7-7-7---0-0-0-0--0-0-0--0-0-0--0-0-0-0--|
D|--------------------------------------------------------------------------------------------------|
A|--------------------------------------------------------------------------------------------------|
D|--------------------------------------------------------------------------------------------------|


e|--------------------------------------------------------------------------------------------|
B|----------------------------------------------8-8-8-8-8-8-8-8--8-8-8-8--7-7-7-7-------------|
G|--5-5-5-5------------12---14---11----5-5-5----7-7-7-7-7-7-7-7--7-7-7-7--7-7-7-7-------------|
D|--5-5-5-5--2-2-2------x----x----x----5-5-5--------------------------------------------------|
A|--3-3-3-3--2-2-2-----10---12----9----3-3-3--------------------------------------------------|
D|-----------2-2-2----------------------------------------------------------------------------|


Chorus: Same as first


Bridge: (2x)
e|--------------------------------------------------------------------------------|
B|----------------------------------5---------------------------------------------|
G|--0-7-9--0-7-9--0-7-9--0-7-9--0-7---4---0-4-5--0-4-5--0-4-5--0-4-5--0-4-5-0-----|
D|--------------------------------------------------------------------------------|
A|--------------------------------------------------------------------------------|
D|--------------------------------------------------------------------------------|
(On the second time end on just 0 instead of 0-4-5-0)-----------------------------|

Bridge continued:  PALM MUTE IN TRIPLETS
e|---------------------0----------------------0----------------------0-------------------------------|
B|---------------------4----------------------4----------------------4-------------------------------|
G|---------------------------------------------------------------------------------------------------|
D|--2-2-2----2-2-2----------2-2-2---2-2-2----------2-2-2---2-2-2-----------2-2-2---2-2-2---5-5-5-5---|
A|--2-2-2----2-2-2----------2-2-2---2-2-2----------2-2-2---2-2-2-----------2-2-2---2-2-2---5-5-5-5---|
D|--2-2-2----2-2-2----------2-2-2---2-2-2----------2-2-2---2-2-2-----------2-2-2---2-2-2---5-5-5-5---|


Bridge continued:  PALM MUTE IN TRIPLETS
e |-----------------------0-0-0-0-----------------0-0-0-0-----------------0-0-0-0----------------------|
B|------------------------4-4-4-4-----------------4-4-4-4-----------------4-4-4-4----------------------|
G|-----------------------------------------------------------------------------------------------------|
D|--2-2-2----2-2-2----------------2-2-2---2-2-2------------2-2-2---2-2-2------------2-2-2---2-2-2---5--|
A|--2-2-2----2-2-2----------------2-2-2---2-2-2------------2-2-2---2-2-2------------2-2-2---2-2-2---5--|
D|--2-2-2----2-2-2----------------2-2-2---2-2-2------------2-2-2---2-2-2------------2-2-2---2-2-2---5~-|


Chorus: Same

Chorus Continued: Strumming is real easy
e|--------------------------------------------------------------------------------------------------------|
B|--------------------------------------------------------------------------------------------------------|
G|---12-----11----9-----7-----11---12----14----12--------16---14----17---16----12---19----17----16----14--|
D|----x-----x-----x-----x-----x-----x-----x-----x---------x----x-----x----x-----x----x-----x-----x-----x--|
A|---10-----9-----7-----5-----9----10----12----10--------14---12----15---14----10---17----15----14----12--|
D|--------------------------------------------------------------------------------------------------------|


Outro:
e|----------------------------------------------------|
B|----------------------------------------------------|
G|----------------------------------------------------|
D|---2-2-2----x-2----2-2-2-2-2-2----------------------|
A|---2-2-2----x-2----2-2-2-2-2-2----------------------|
D|---2-2-2----x-2----2-2-2-2-2-2----------------------|

GUITAR 2'S PARTS
-------------

Intro: (4x)
e|----------------------------------------------------------------------|
B|----------------------------------------------------------------------|
G|--5-5-5-5---5-5-5---5-5-5-5-5-5---------------------------------------|
D|--5-5-5-5---5-5-5---5-5-5-5-5-5--2-2-2-2---2-2-2---2-2-2-2-2-2--------|
A|--3-3-3-3---3-3-3---3-3-3-3-3-3--2-2-2-2---2-2-2---2-2-2-2-2-2--------|
D|---------------------------------2-2-2-2---2-2-2---2-2-2-2-2-2--------|


Chorus: (1x) Strumming is real easy
e|------------------------------------------------------------------------------|
B|------------------------------------------------------------------------------|
G|-------------------------------------5-5-5-5--x---5-5-5-5---x---5-5-5-5-------|
D|-----5---7--------0----------2-------5-5-5-5--x---5-5-5-5---x---3-3-3-3-------|
A|-----5---5--------0----------2-------3-3-3-3--x---3-3-3-3---x---3-3-3-3-------|
D|-----5---5--------0----------2------------------------------------------------|



Chorus Continued
e|--------------------------------------------------------------------------------------|
B|--------------------------------------------------------------------------------------|
G|-----------------------------------------5-5-5-5--x---5-5-5-5---x---5-5-5-5-----------|
D|-----5---7--------0-----0-0-0-0--2-------5-5-5-5--x---5-5-5-5---x---3-3-3-3-----------|
A|-----5---5--------0-----0-0-0-0--2-------3-3-3-3--x---3-3-3-3---x---3-3-3-3-----------|
D|-----5---5--------0-----0-0-0-0--2----------------------------------------------------|

Verse: (2x)
e|------------------------------------------------------------------------|
B|------------------------------------------------------------------------|
G|--5-5-5-5---5-5-5---5-5-5-5-5-5-----------------------------------------|
D|--5-5-5-5---5-5-5---5-5-5-5-5-5--2-2-2-2---2-2-2---2-2-2-2-2-2----------|
A|--3-3-3-3---3-3-3---3-3-3-3-3-3--2-2-2-2---2-2-2---2-2-2-2-2-2----------|
D|---------------------------------2-2-2-2---2-2-2---2-2-2-2-2-2----------|

Verse Continued: (Use HARMONICS)
e|----------------------------------------------------------------------|
B|-----------------------------------------------------------5----------|
G|---5-5-5-5-------5-----5-------------------5-5-5-5------5-----5-------|
D|---5-5-5-5----------5-----5----------------5-5-5-5--------------------|
A|---3-3-3-3---------------------2-2-2-2-----3-3-3-3--------------------|
D|-------------------------------2-2-2-2--------------------------------|
                  *   *  *  *                             *   *  *

-----------------------------------|
-----------------------------------|
-----------------------------------|
-2-2-2-2-2-2-2-2-2-2-2-2-2-2-2-2---|
-2-2-2-2-2-2-2-2-2-2-2-2-2-2-2-2---|
-2-2-2-2-2-2-2-2-2-2-2-2-2-2-2-2~--|


Chorus: Same as first

Bridge:
e|-------------------------------------------------------------------------------|
B|-------------------------------------------------------------------------------|
G|-------------------------------------------------------------------------------|
D|--2-2---2-2-2---2--2-2---2-2-2---0--0---5-5---5-5-5--5--5-5---5-5-5---5---5----|
A|--2-2---2-2-2---2--2-2---2-2-2---0--0---5-5---5-5-5--5--5-5---5-5-5---5---5----|
D|--2-2---2-2-2---2--2-2---2-2-2---0--0---5-5---5-5-5--5--5-5---5-5-5---5---5----|


e|-----------------------------------------------------------------------------------|
B|-----------------------------------------------------------------------------------|
G|-----------------------------------------------------------------------------------|
D|--2-2---2-2-2---2--2-2---2-2-2---0--0---5-5---5-5-5--5----5--5--5----5-5-5---5-----|
A|--2-2---2-2-2---2--2-2---2-2-2---0--0---5-5---5-5-5--5----5--5--5----5-5-5---5-----|
D|--2-2---2-2-2---2--2-2---2-2-2---0--0---5-5---5-5-5--5----5--5--5----5-5-5---5-----|


Bridge continued:  PALM MUTE IN TRIPLETS
e|-----------------0------------------0------------------0-------------------------------|
B|------------------4------------------4-----------------4-------------------------------|
G|---------------------------------------------------------------------------------------|
D|--2-2-2----2-2-2------2-2-2---2-2-2------2-2-2---2-2-2-------2-2-2---2-2-2---5-5-5-5---|
A|--2-2-2----2-2-2------2-2-2---2-2-2------2-2-2---2-2-2-------2-2-2---2-2-2---5-5-5-5---|
D|--2-2-2----2-2-2------2-2-2---2-2-2------2-2-2---2-2-2-------2-2-2---2-2-2---5-5-5-5---|


Bridge continued:  PALM MUTE IN TRIPLETS
e|-----------------0-0-0-0----------------0-0-0-0-----------------0-0-0-0--------------------0--|
B|------------------4-4-4-4----------------4-4-4-4-----------------4-4-4-4-------------------4--|
G|----------------------------------------------------------------------------------------------|
D|--2-2-2----2-2-2----------2-2-2---2-2-2-----------2-2-2---2-2-2------------2-2-2---2-2-2------|
A|--2-2-2----2-2-2----------2-2-2---2-2-2-----------2-2-2---2-2-2------------2-2-2---2-2-2------|
D|--2-2-2----2-2-2----------2-2-2---2-2-2-----------2-2-2---2-2-2------------2-2-2---2-2-2------|

Chorus: Same


Outro
e|----------------------------------------|
B|----------------------------------------|
G|----------------------------------------|
D|---2-2-2----x-2----2-2-2-2-2-2----------|
A|---2-2-2----x-2----2-2-2-2-2-2----------|
D|---2-2-2----x-2----2-2-2-2-2-2----------|

2.Lady In A Blue Dress

DROPPED D TUNING - Strings are (D A D G B E)

Guitar 1:
Intro/Verses [Clean] x2 then distorted throughout

Listen for timing very simple.
|---------------------|
|---------------------|
|--14----9----11---9--|
|--x-----x----x----x--|
|--12----7----9----7--|
|---------------------|

chorus

You say that you want respect.......
|----------------------|
|----------------------|
|--7-------------------|
|--7----7----9----5----|   x4
|--5----7----9----5----|
|-------7----9----5----|

Bridge

Don't try to be cute ......
|----------------------|
|----------------------|
|----------------------|
|--9---12---5----------|
|--9---12---5----------|
|--9---12---5----------|


End on:

|-------|
|-------|
|-------|
|---0---|
|---0---|
|---0---|


Guitar 2:

Don't play intro first two times then come in with........
guitar 2 will play this for the verse also just listen for timing quite easy.

|-------------------------|
|-------------------------|
|-------------------------|
|---9-----------5---------|
|---9-----------5---------|
|---9-----------5---------|

3.You're Cute When You Scream

DROPPED D TUNING - Strings are (D A D G B E)


Intro
e------------------------------------------------------------------------------|
b------------------------------------------------------------------------------|
g------------------------------------------------------------------------------|
d---5~----8p5-7p5-5h7----------------------------------------------------------|
a---5~-------------------------------------------------------------------------|
D---5~-------------------------------------------------------------------------|

Verse (x4)
e------------------------------------------------------------------------------|
b------------------------------------------------------------------------------|
g------------------------------------------------------------------------------|
d--5----5h7h8--5-5--5h7h8----5-5--5h7h8----1--3--------------------------------|
a--5-----------5-5-----------5-5-----------1--3--------------------------------|
D--5-----------5-5-----------5-5-----------1--3--------------------------------|

Pre chorus (x1)
"and all i know...."
e------------------------------------------------------------------------------|
b------------------------------------------------------------------------------|
g------------------------------------------------------------------------------|
d--1---3---5---3---------------------------------------------------------------|
a--1---3---5---3---------------------------------------------------------------|
D--1---3---5---3---------------------------------------------------------------|

Chorus (x2)
"You know, that you are worthless..."
e-------------------------------------------------------------------------------|
b-------------------------------------------------------------------------------|
g-------------------------------------------------------------------------------|
d---5---1---3--3----------------------------------------------------------------|
a---5---1---1--3----------------------------------------------------------------|
D---5---1------3----------------------------------------------------------------|

Verse (x2)

Prechorus

Chorus

Bridge (x4)
"ill take you, up to the top.."

Palm mute the last 2 times, but dont palm mute the last 2 chors on the last time

e--------------------------------------------------------------------------------|
b--------------------------------------------------------------------------------|
g--------------------------------------------------------------------------------|
d----1~--3~---0~---3--3----------------------------------------------------------|
a----1~--3~---0~---1--0----------------------------------------------------------|
D----1~--3~---0~-----------------------------------------------------------------|

Chours

Last verse(x1)

the last verse is played like the 1st and 2nd just with no lead, as follows
"this time, i win, so heres your kiss goodbye"
e--------------------------------------------------------------------------------|
b--------------------------------------------------------------------------------|
g--------------------------------------------------------------------------------|
d--5----5-5---5-5---1--3---5-----------------------------------------------------|
a--5----5-5---5-5---1--3---5-----------------------------------------------------|
D--5----5-5---5-5---1--3---5-----------------------------------------------------|

end on 5

Song order

Intro
Verse
Prechours
Chorus
Verse (x2)
Prechorus
Chorus
Bridge
Chorus
Last Verse


4.Buried A Lie

DROPPED D TUNING - Strings are (D A D G B E)


Guitar I

Intro
|-----------------------------|
|-----------------------------|
|-----2---------------2-------|
|---0---4---2--0----0---4---2-|
|-4-------4-------4-------4---|
|-----------------------------|

Intro Part II
|-------------------------------------------|
|-------------------------------------------|
|-666-777-14-141414-111111-12-9-999999-1111-|
|-xxx-xxx-x--x-x-x--x-x-x--x--x-xxxxxx-x-x--|
|-444-555-12-121212-9-9-9-/10-7-777777/9-9--|
|-------------------------------------------|

Pre Verse
|-----------------------------------------|
|-----------------------------------------|
|-----------------------------------------|
|-555-000-555-000-55-555-000-555-000-5555-|
|-555-000-555-000-55-555-000-555-000-5555-|
|-555-000-555-000-55-555-000-555-000-5555-|

Verse
|---------------------------------------------------------------------|
|---------------------------------------------------------------------|
|---------------------------------------------------------------------|
|-0000000000000000-4444444444444444-9999999999999999-5555555555555555-|
|-0000000000000000-4444444444444444-9999999999999999-5555555555555555-|
|-0000000000000000-4444444444444444-9999999999999999-5555555555555555-|
PM................ ................ ................ ................

Verse
|--------------------------------------------|
|-222-101010-7777-5555--222-101010-7777-8888-|
|--------------------------------------------|
|--------------------------------------------|
|--------------------------------------------|
|--------------------------------------------|
PM... . . .  .... ....  ... . . .  .... ....

Verse Part II
|----------------------------------------|
|-222-101010-7777-5555--3333333333333333-|
|----------------------------------------|
|----------------------------------------|
|----------------------------------------|
|----------------------------------------|
PM... . . .  .... ....  ,,,,,,,,,,,,,,,,

Chorus
|---------------------------------------|
|-10~--7~--5h7~----10~---7~---5h7---5---|
|---------------------------------7---7-|
|---------------------------------------|
|---------------------------------------|
|---------------------------------------|

Repeat Pre Verse
Repeat Verse
Repeat Chorus

Bridge
|----------------------------------|
|----------------------------------|
|-7777777777777777-999999-66666666-|
|-xxxxxxxxxxxxxxxx-xxxxxx-xxxxxxxx-|
|-5555555555555555-777777-44444444-|
|----------------------------------|

Bridge
|-----------------------------------------------------|
|-----------------------------------------------------|
|-----------------------------------------------------|
|--------------------------------------------------7~-|
|--------------------------------------------------7~-|
|-444444-000000-999999-777777-444444-000000-999999-7~-|
PM...... ...... ...... ...... ...... ...... ......

Bridge
|------------------------------------------|
|------------------------------------------|
|------------------------------------------|
|------------------------------------------|
|------------------------------------------|
|-555-000-555-000-555-555-000-555-000-5555-|

Bridge
|---------------------------------------|
|---------------------------------------|
|---------------------------------------|
|-555-000-555-000-555-555-000-5-5555555-|
|-555-000-555-000-555-555-000-5-5555555-|
|-555-000-555-000-555-555-000-5-5555555-|
PM                              .......

Repeat Intro Part II

Ending
|----------------------------------------|
|----------------------------------------|
|-7777777777777777-111111111111-66666666-|
|-xxxxxxxxxxxxxxxx-x-x-x-x-x-x--xxxxxxxx-|
|-5555555555555555-9-9-9-9-9-9--44444444-|
|----------------------------------------|

Ending
|----------------------------------------|
|----------------------------------------|
|-7777777777777777-111111111111-99999999-|
|-xxxxxxxxxxxxxxxx-x-x-x-x-x-x--xxxxxxxx-|
|-5555555555555555-9-9-9-9-9-9--77777777-|
|----------------------------------------|


|----|
|----|
|----|
|-0~-|
|-0~-|
|-0~-|


Guitar II


Intro clean
|-------------------------|
|-------------------------|
|-------------------------|
|-9999-555555-0000-777777-|
|-9999-555555-0000-777777-|
|-9999-555555-0000-777777-|

Intro Part II
|-------------------------|
|-------------------------|
|-------------------------|
|-9999-555555-0000-777777-|
|-9999-555555-0000-777777-|
|-9999-555555-0000-777777-|

Pre Verse
|-----------------------------------------|
|-----------------------------------------|
|-----------------------------------------|
|-555-000-555-000-55-555-000-555-000-5555-|
|-555-000-555-000-55-555-000-555-000-5555-|
|-555-000-555-000-55-555-000-555-000-5555-|

Verse
|---------------------------------------------------------------------|
|---------------------------------------------------------------------|
|---------------------------------------------------------------------|
|-0000000000000000-4444444444444444-9999999999999999-5555555555555555-|
|-0000000000000000-4444444444444444-9999999999999999-5555555555555555-|
|-0000000000000000-4444444444444444-9999999999999999-5555555555555555-|
PM................ ................ ................ ................

Chorus
|-------------------------|
|-------------------------|
|-------------------------|
|-9999-555555-0000-777777-|
|-9999-555555-0000-777777-|
|-9999-555555-0000-777777-|

Repeat Pre Verse
Repeat Verse
Repeat Chorus

Bridge
|-----------------------------------|
|-----------------------------------|
|-----------------------------------|
|-55555555555555555555555555555/777-|
|-55555555555555555555555555555/777-|
|-55555555555555555555555555555/777-|

Bridge
|-------5------------------------5----------------|
|-2--3-----7--2--5----0----2--3-----7--2--5-------|
|-------------------------------------------------|
|-------------------------------------------------|
|-------------------------------------------------|
|-------------------------------------------------|

Bridge
|------------------------------------------|
|------------------------------------------|
|------------------------------------------|
|------------------------------------------|
|------------------------------------------|
|-555-000-555-000-555-555-000-555-000-5555-|

Bridge
|---------------------------------------|
|---------------------------------------|
|---------------------------------------|
|-555-000-555-000-555-555-000-5-5555555-|
|-555-000-555-000-555-555-000-5-5555555-|
|-555-000-555-000-555-555-000-5-5555555-|
PM                              .......

Repeat Chorus

Ending
|-----------------------------------------|
|-----------------------------------------|
|-----------------------------------------|
|-555-000-555-000-55-555-000-555-000-5555-|
|-555-000-555-000-55-555-000-555-000-5555-|
|-555-000-555-000-55-555-000-555-000-5555-|

Ending
|----|
|----|
|----|
|-0~-|
|-0~-|
|-0~-|

5.Bite To Break Skin

DROPPED D TUNING - Strings are (D A D G B E)


Intro Verse 1
e|-----------8---------8-----8--------|
B|---5h6h5h6---5h6h5h6---5h6----------| 10X
G|------------------------------------|
D|------------------------------------|
A|------------------------------------|
E|------------------------------------|

Intro Verse 2       Play Verse two 2X
e|-----------------------------------------------------------------|
B|--5-5-6-6-8-8-5-5-6-6-8-8-5-5-8-8-3-3-5-5-6-6-3-3-5-5-6-6-3-3-6-6|
G|-----------------------------------------------------------------|
D|-----------------------------------------------------------------|
A|-----------------------------------------------------------------|
E|-----------------------------------------------------------------|
CONTINUED
e|----------8-8---------8-8-----8---------8-8---------8-8----8-8-|
B|--5-5-6-6-----5-5-6-6-----6-6---5-5-6-6-----5-5-6-6-----6-6----|
G|---------------------------------------------------------------|
D|---------------------------------------------------------------|
A|---------------------------------------------------------------|
E|---------------------------------------------------------------|

Verse 1
e|--------------------------------------------------------------------------|
B|--------------------------------------------------------------------------|
G|--------------------------------------------------------------------------|
D|-0~---8-8------0~---8-8----0-0-0-0--7-7-7-7--8-8-8-8--8-8-8-8-7-7-8-8-8-8-|
A|-0~---8-8------0~---8-8----0-0-0-0--7-7-7-7--8-8-8-8--8-8-8-8-7-7-8-8-8-8-|
E|-0~---8-8------0~---8-8----0-0-0-0--7-7-7-7--8-8-8-8--8-8-8-8-7-7-8-8-8-8-|
        . .           . .    . . . .  . . . .  . . . .  . . . . . . . . . .

Verse 1 Continued
e|-------------------------------------------------|
B|-------------------------------------------------|
G|-------------------------------------------------|
D|-0-0-0-0--7-7-7-7--8-8-8-8--8-8-8-8-7-7-8-8-8-8--|
A|-0-0-0-0--7-7-7-7--8-8-8-8--8-8-8-8-7-7-8-8-8-8--|
E|-0-0-0-0--7-7-7-7--8-8-8-8--8-8-8-8-7-7-8-8-8-8--|
   . . . .  . . . .  . . . .  . . . . . . . . . .

Pre Chorus
e|-------------------------------------------------------|
B|-------------------------------------------------------|
G|-------------------------------------------------------|
D|--7-7-7-7-7-8-8-8-8-8-7-7-7-7-7-8-8-8-8-10-10-10-10x---|
A|--7-7-7-7-7-8-8-8-8-8-7-7-7-7-7-8-8-8-8-10-10-10-10x---|
E|--7-7-7-7-7-8-8-8-8-8-7-7-7-7-7-8-8-8-8-10-10-10-10x---|

Chorus 2X
e|-----------------------------------------------------------------|
B|--5-5-6-6-8-8-5-5-6-6-8-8-5-5-8-8-3-3-5-5-6-6-3-3-5-5-6-6-3-3-6-6|
G|-----------------------------------------------------------------|
D|-----------------------------------------------------------------|
A|-----------------------------------------------------------------|
E|-----------------------------------------------------------------|
CONTINUED
e|----------8-8---------8-8-----8---------8-8---------8-8----8-8-|
B|--5-5-6-6-----5-5-6-6-----6-6---5-5-6-6-----5-5-6-6-----6-6----|
G|---------------------------------------------------------------|
D|---------------------------------------------------------------|
A|---------------------------------------------------------------|
E|---------------------------------------------------------------|

Then go back and Play Verse 1, the Pre-Chorus, and the Chorus..then..

 Figure out the strumming here..It's very easy.
e|---------------------------------|
B|---------------------------------|  Play 3X
G|--14-------10-------5-------10---|
D|--x---------x-------x--------x---|
A|--10--------8-------3--------8---|
E|---------------------------------|

Bridge
e|--------8~-------10-8-|
B|--5-6-5----5-6-5------|Play 3X
G|----------------------|
D|----------------------|
A|----------------------|
E|----------------------|

 1st time through
e|-------8~--5-6-5-8-6-5--| After that go back and play the
B|-5-6-5------------------| beginning of the bridge & play
G|------------------------| my 2nd time through part below.
D|------------------------|
A|------------------------|
E|------------------------|

 2nd time through
e|-------8~----------------|
B|-5-6-5-------------------|
G|-------------------------|
D|----------7-8-7-10-8-7x--|
A|----------7-8-7-10-8-7x--|
E|----------7-8-7-10-8-7x--|

GUITAR 2

 Intro Verse 1 2X
e|------------------|
B|------------------|
G|------------------|
D|--0~--8~--7~--8~--|
A|--0~--8~--7~--8~--|
E|--0~--8~--7~--8~--|

Intro Verse 2 2X (Figure out the strumming yourself)
e|-------------|
B|-------------|
G|-------------|
D|-0--8--7--8--|
A|-0--8--7--8--|
E|-0--8--7--8--|

Verse 1
e|--------------------------------------------------------------------------|
B|--------------------------------------------------------------------------|
G|--------------------------------------------------------------------------|
D|-0~---8-8------0~---8-8----0-0-0-0--7-7-7-7--8-8-8-8--8-8-8-8-7-7-8-8-8-8-|
A|-0~---8-8------0~---8-8----0-0-0-0--7-7-7-7--8-8-8-8--8-8-8-8-7-7-8-8-8-8-|
E|-0~---8-8------0~---8-8----0-0-0-0--7-7-7-7--8-8-8-8--8-8-8-8-7-7-8-8-8-8-|
        . .           . .    . . . .  . . . .  . . . .  . . . . . . . . . .

Verse 1 Continued
e|-------------------------------------------------|
B|-------------------------------------------------|
G|-------------------------------------------------|
D|-0-0-0-0--7-7-7-7--8-8-8-8--8-8-8-8-7-7-8-8-8-8--|
A|-0-0-0-0--7-7-7-7--8-8-8-8--8-8-8-8-7-7-8-8-8-8--|
E|-0-0-0-0--7-7-7-7--8-8-8-8--8-8-8-8-7-7-8-8-8-8--|
   . . . .  . . . .  . . . .  . . . . . . . . . .

Pre-Chorus
e|-------------------------------------------------------|
B|-------------------------------------------------------|
G|-------------------------------------------------------|
D|--7-7-7-7-7-8-8-8-8-8-7-7-7-7-7-8-8-8-8-10-10-10-10x---|
A|--7-7-7-7-7-8-8-8-8-8-7-7-7-7-7-8-8-8-8-10-10-10-10x---|
E|--7-7-7-7-7-8-8-8-8-8-7-7-7-7-7-8-8-8-8-10-10-10-10x---|

Chorus 2X (Figure out the strumming)
e|------------------|
B|------------------|
G|------------------|
D|--0---8---3---2---|
A|--0---8---3---2---|
E|--0---8---3---2---|

Then go back and play Verse 1, Pre-Chorus, and Chorus again then it goes..

Bridge Play 4X
e|-------------|
B|-------------|
G|-------------|
D|-0--8--7--8--|
A|-0--8--7--8--|
E|-0--8--7--8--|
   ...........

Breakdown 2X  (Again, Figure out the strumming)
e|------------------------------|
B|------------------------------|
G|------------------------------|
D|-0--8--7--8--7-8-7-10-8-7-----|
A|-0--8--7--8--7-8-7-10-8-7-----|
E|-0--8--7--8--7-8-7-10-8-7-----|

6.Rum Is For Drinking, Not For Burning

DROPPED D TUNING - Strings are (D A D G B E)


Guitar 1


     INTRO

e|-------------------------------------------------------------------|
B|-------------------------------------------------------------------|
G|--------------------------------------------------------   --------|
D|--0-00-0-00--0-00-0-00---8-88-8-88---10-1010-10-1010--- X2 --------|
A|--0-00-0-00--0-00-0-00---8-88-8-88---10-1010-10-1010---   ---------|
D|--0-00-0-00--0-00-0-00---8-88-8-88---10-1010-10-1010---------------|


     VERSE

e|-------------------------------------------------------------------|
B|-------------------------------------------------------------------|
G|-------------------------------------------------------------------|
D|--0-0~---8x8x--3x3x-2x2x---0-0~---8x8x--3x3x-2x2x------------------|
A|--0-0~---8x8x--3x3x-2x2x---0-0~---8x8x--3x3x-2x2x------------------|
D|--0-0~---8x8x--3x3x-2x2x---0-0~---8x8x--3x3x-2x2x------------------|
                                          . .  . .

     PRE-CHORUS

e|-------------------------------------------------------------------|
B|-------------------------------------------------------------------|
G|-------------------------------------------------------------------|
D|-0-0-0-0000-0-00--8-8-8-8888--3-33-22------------------------------|
A|-0-0-0-0000-0-00--8-8-8-8888--3-33-22------------------------------|
D|-0-0-0-0000-0-00--8-8-8-8888--3-33-22------------------------------|

e|-------------------------------------------------------------------|
B|-------------------------------------------------------------------|
G|-------------------------------------------------------------------|
D|-0-0-0-0000-0-00--8-8-8-8888--3x3x-2x2x----------------------------|
A|-0-0-0-0000-0-00--8-8-8-8888--3x3x-2x2x----------------------------|
D|-0-0-0-0000-0-00--8-8-8-8888--3x3x-2x2x----------------------------|
                                . .  . .

     CHORUS

e|-------------------------------------------------------------------|
B|-------------------------------------------------------------------|
G|-------------------------------------------------------------------|
D|--0-00-00-0-00-0-00---8-88-88-8-88-8-88----------------------------|
A|--0-00-00-0-00-0-00---8-88-88-8-88-8-88-------------     ----------|
E|--0-00-00-0-00-0-00---8-88-88-8-88-8-88------------      ----------|
                                                       X2
e|---------------------------------------------------      ----------|
B|---------------------------------------------------     -----------|
G|-------------------------------------------------------------------|
D|--3-33-33-3-33-3-33--10-1010-10-1010-8-88 10-1010------------------|
A|--3-33-33-3-33-3-33--10-1010-10-1010-8-88 10-1010------------------|
D|--3-33-33-3-33-3-33--10-1010-10-1010-8-88 10-1010------------------|


     *VERSE 2
     *PRE-CHORUS
     *CHORUS


     BRIDGE

e|-------------------------------|-----------------------------------|
B|-------------------------------|-----------------------------------|
G|-------------------------------|-----------------------------------|
D|-- 0~ -------------------------|~ ---------------------------------|
A|-- 0~ -------------------------|~ ---------------------------------|
E|-- 0~ -------------------------|~ ---------------------------------|

e|-------------------------------------------------------------------|
B|-------------------------------------------------------------------|
G|-------------------------------------------------------------------|
D|--0-0-00-00--0-0-00--8-8-88-88--10-10-1010-1010--------------------|
A|--0-0-00-00--0-0-00--8-8-88-88--10-10-1010-1010--------------------|
D|--0-0-00-00--0-0-00--8-8-88-88--10-10-1010-1010--------------------|

e|-------------------------------------------------------------------|
B|-------------------------------------------------------------------|
G|-------------------------------------------------------------------|
D|--0-0-00-00--0-0-00--8-8-88-88--3-3-3-2/3-2------------------------|
A|--0-0-00-00--0-0-00--8-8-88-88--3-3-3-2/3-2------------------------|
D|--0-0-00-00--0-0-00--8-8-88-88--3-3-3-2/3-2------------------------|


     *CHORUS


     OUTRO

e|-------------------------------------------------------------------|
B|-------------------------------------------------------------------|
G|-------------------------------------------------------------------|
D|--0-000-000--0-000-000--8-888-888-8-888-888-----    ---------------|
A|--0-000-000--0-000-000--8-888-888-8-888-888----     ---------------|
D|--0-000-000--0-000-000--8-888-888-8-888-888----     ---------------|
                                                  X2
e|-----------------------------------------------     ---------------|
B|-----------------------------------------------     ---------------|
G|-----------------------------------------------    ----------------|
D|--3-333-333--10-101010-101010-888-101010---------------------------|
A|--3-333-333--10-101010-101010-888-101010---------------------------|
D|--3-333-333--10-101010-101010-888-101010---------------------------|

e|-------------------------------------------------------------------|
B|-------------------------------------------------------------------|
G|-------------------------------------------------------------------|
D|--0~---0~---0~---0x------------------------------------------------|
A|--0~---0~---0~---0x------------------------------------------------|
D|--0~---0~---0~---0x------------------------------------------------|


Guitar 2

     INTRO

e|-------------------------------------------------------------------|
B|--66-5555-8888-6-5/6-66-55-----6\5------   ------------------------|
G|---------------------------555--------- X2 ------------------------|
D|---------------------------------------   -------------------------|
A|-------------------------------------------------------------------|
D|-------------------------------------------------------------------|

          (No GUITAR 2 in VERSE)

     PRE-CHORUS

e|-------------8-8---------------------8-8---------------------------|
B|--6-6---------------------6-6--------------------------------------|
G|-------------------------------------------------------------------|
D|-------------------------------------------------------------------|
A|-------------------------------------------------------------------|
D|-------------------------------------------------------------------|


     CHORUS

e|-----------8--10--8--3/55------------------------------------------|
B|--5--6--3-------------------   ------------------------------------|
G|--------------------------- X4 ------------------------------------|
D|---------------------------   -------------------------------------|
A|-------------------------------------------------------------------|
D|-------------------------------------------------------------------|


     BRIDGE

e|--5~----------------------------|~---------------------------------|
B|--------------------------------|----------------------------------|
G|--------------------------------|----------------------------------|
D|--------------------------------|----------------------------------|
A|--------------------------------|----------------------------------|
D|--------------------------------|----------------------------------|

e|------------------------5-5-5-55--------88-------------------------|
B|--6-6-6-5/6--6-6-6-5/6------------5-5-5----------------------------|
G|-------------------------------------------------------------------|
D|-------------------------------------------------------------------|
A|-------------------------------------------------------------------|
D|-------------------------------------------------------------------|

e|------------------------5-5-5-55-----------------------------------|
B|--6-6-6-5/6--6-6-6-5/6------------6-6-6-5/6------------------------|
G|-------------------------------------------------------------------|
D|-------------------------------------------------------------------|
A|-------------------------------------------------------------------|
D|-------------------------------------------------------------------|


     *CHORUS


     OUTRO

e|-----------8--10--8--3/55------------------------------------------|
B|--5--6--3-------------------   ------------------------------------|
G|--------------------------- X4 ------------------------------------|
D|---------------------------   -------------------------------------|
A|-------------------------------------------------------------------|
D|-------------------------------------------------------------------|

e|--8-8-1010------1313-1212-1010-8h10--------------------------------|
B|-----------1010------------------------   -------------------------|
G|-------------------------------------- X4 -------------------------|
D|--------------------------------------   --------------------------|
A|-------------------------------------------------------------------|
D|-------------------------------------------------------------------|

e|-------------------------------------------------------------------|
B|--55-66-33-66-55-6-5/6----   ---------------6x---------------------|
G|------------------------- X3 --------------------------------------|
D|-------------------------   ---------------------------------------|
A|-------------------------------------------------------------------|
D|-------------------------------------------------------------------|

e|-------------------------------------------------------------------|
B|--6x6x6x6x6x6x6x6x6x6x6x6x6x6x6x6x6x6x6x6x6x6x6x6x6x6x6x-----------|
G|-------------------------------------------------------------------|
D|-------------------------------------------------------------------|
A|-------------------------------------------------------------------|
D|-------------------------------------------------------------------|
  (gradually decrease volume, first 27 strums)

e|-------------------------------------------------------------------|
B|--6x6x6x6x6x6x6x6x6x6x6x6x6x6x6x6x6x6x6x---------------------------|
G|-------------------------------------------------------------------|
D|-------------------------------------------------------------------|
A|-------------------------------------------------------------------|
D|-------------------------------------------------------------------|
  (gradually increase volume, last 19 strums)

Guitar 3
          (This guitar is only during the OUTRO)

     OUTRO

e|---------------88-1010-8-6h8---------------------------------------|
B|--88-1010-------------------------    -----------------------------|
G|----------1010------------------- X11 -----7x----------------------|
D|---------------------------------    ------------------------------|
A|-------------------------------------------------------------------|
D|-------------------------------------------------------------------|

e|-------------------------------------------------------------------|
B|-------------------------------------------------------------------|
G|--7x7x7x7x7x7x7x7x7x7x7x7x7x7x7x7x7x7x7x7x7x7x7x7x7x7x7x-----------|
D|-------------------------------------------------------------------|
A|-------------------------------------------------------------------|
D|-------------------------------------------------------------------|
  (gradually decrease volume, first 27 strums)

e|-------------------------------------------------------------------|
B|-------------------------------------------------------------------|
G|--7x7x7x7x7x7x7x7x7x7x7x7x7x7x7x7x7x7x7x---------------------------|
D|-------------------------------------------------------------------|
A|-------------------------------------------------------------------|
D|-------------------------------------------------------------------|
  (gradually increase volume, last 19 strums)


7.Slowdance

DROPPED D TUNING - Strings are (D A D G B E)


Guitar 1
0:00
E|----0----------0----------------|
B|----0----------0----------------| X2
G|----5----------0----------------|
D|----5----------2----------------|
A|----3----------2----------------|
D|----X----------2----------------|
Let these Chords ring out

0:12   Verse 1
E|--------------------------------------------------|
B|--------------------------------------------------| X4
G|--5-5-5-5-5-5-5-5---------------------------------|
D|--5-5-5-5-5-5-5-5------2-2-2-2-2-2-2-2------------|
A|--3-3-3-3-3-3-3-3------2-2-2-2-2-2-2-2------------|
D|-----------------------2-2-2-2-2-2-2-2------------|

P.M     Pattern not shown

0:35    Chorus
E|---------------------------------------------------------------------|
B|---------------------------------------------------------------------| X2
G|---------------------------------------------------5-5-5-5-5-5-5-5---|
D|-5-5-5-5-5-5-5-5--2-2-2-2-2-2-2-2-2-2-2-2-2-2-2-2--5-5-5-5-5-5-5-5---|
A|-5-5-5-5-5-5-5-5--2-2-2-2-2-2-2-2-2-2-2-2-2-2-2-2--3-3-3-3-3-3-3-3---|
D|-5-5-5-5-5-5-5-5--2-2-2-2-2-2-2-2-2-2-2-2-2-2-2-2--------------------|


1:00 Verse 2
E|--------------------------------------------------|
B|--------------------------------------------------| X2
G|--5-5-5-5-5-5-5-5---------------------------------|
D|--5-5-5-5-5-5-5-5------2-2-2-2-2-2-2-2------------|
A|--3-3-3-3-3-3-3-3------2-2-2-2-2-2-2-2------------|
D|-----------------------2-2-2-2-2-2-2-2------------|
P.M    Pattern Not Shown

1:12
E|-------------------------|-------------------------------------------------|
B|-------------------------|-------------------------------------------------|
G|--5-5-5------------------|--5-5-5------------------------------------------|
D|--5-5-5-------2-2-2------|--5-5-5--------2---2-2-2-2-2-2-2---2----2----2---|
A|--3-3-3-------2-2-2------|--3-3-3--------2---2-2-2-2-2-2-2---2----2----2---|
D|--------------2-2-2------|---------------2---2-2-2-2-2-2-2---2----2----2---|
                                                          .......
1:23    Chorus
E|---------------------------------------------------------------------|
B|---------------------------------------------------------------------| X2
G|---------------------------------------------------5-5-5-5-5-5-5-5---|
D|-5-5-5-5-5-5-5-5--2-2-2-2-2-2-2-2-2-2-2-2-2-2-2-2--5-5-5-5-5-5-5-5---|
A|-5-5-5-5-5-5-5-5--2-2-2-2-2-2-2-2-2-2-2-2-2-2-2-2--3-3-3-3-3-3-3-3---|
D|-5-5-5-5-5-5-5-5--2-2-2-2-2-2-2-2-2-2-2-2-2-2-2-2--------------------|

1:47    Bridge
E|--------------------------------------------------------------------|
B|--------------------------------------------------------------------| X2
G|--------------------------------------------------------------------|
D|--2-2-2-2-2-2-2-2-2-2-2-2-2-2-2--5-5-5-5-5-5-5-5-5-5-5-5-5-5-5-5----|
A|--2-2-2-2-2-2-2-2-2-2-2-2-2-2-2--5-5-5-5-5-5-5-5-5-5-5-5-5-5-5-5----|
D|--2-2-2-2-2-2-2-2-2-2-2-2-2-2-2--5-5-5-5-5-5-5-5-5-5-5-5-5-5-5-5----|

1:58
E|---------------------------------------------------------------------------------|
B|---------------------------------------------------------------------------------| X2
G|---------------------------------------------------------------------------------|
D|--2-2-2--2-2-2----2-2-2--2-2-2----2-2-2--2-2-2----2-2-2--2-2-2--5-5-5--5-5-5-----|
A|--2-2-2--2-2-2----2-2-2--2-2-2----2-2-2--2-2-2----2-2-2--2-2-2--5-5-5--5-5-5-----|
D|--2-2-2--2-2-2----2-2-2--2-2-2----2-2-2--2-2-2----2-2-2--2-2-2--5-5-5--5-5-5-----|

2:14
Chorus
E|---------------------------------------------------------------------|
B|---------------------------------------------------------------------| X4
G|---------------------------------------------------5-5-5-5-5-5-5-5---|
D|-5-5-5-5-5-5-5-5--2-2-2-2-2-2-2-2-2-2-2-2-2-2-2-2--5-5-5-5-5-5-5-5---|
A|-5-5-5-5-5-5-5-5--2-2-2-2-2-2-2-2-2-2-2-2-2-2-2-2--3-3-3-3-3-3-3-3---|
D|-5-5-5-5-5-5-5-5--2-2-2-2-2-2-2-2-2-2-2-2-2-2-2-2--------------------|


3:02
E|--------------------------------------|
B|--------------------------------------|
G|--------------------------------------|
D|--2-2-2-----2----2-2-2-2--2-----------|
A|--2-2-2-----2----2-2-2-2--2-----------|
D|--2-2-2-----2----2-2-2-2--2-----------|


Guitar 2

0:12   Verse 1
[ Tab from: http://www.guitartabs.cc/tabs/s/senses_fail/let_it_enfold_you_tab_ver_4.html ]
Start the 2nd time
E|-----------------------------------------------------------------------------------|
B|-----------------------------------------------------------------------------------| X3
G|--12-12-12-12----12-12-12----12-12-12-11-11-11-11-4-4-4-4-----4-4-4----4-4-4-4-4-4-|
D|--x--x--x--x-----x--x--x-----x--x--x--x--x--x--x--x-x-x-x-----x-x-x----x-x-x-x-x-x-|
A|--10-10-10-10----10=10-10----10-1010=9--9--9--9--2-2-2-2-----2-2-2----2-2-2-2-2-2-|
D|-----------------------------------------------------------------------------------|
P.M

0:35   Chorus
E|-----------------------------------------------|
B|-----------------------------------------------| X8
G|--12----14----16-------------------------------|
D|--x-----x-----x--------------------------------|
A|--10----12----14-------------------------------|
D|-----------------------------------------------|

1:00  Verse 2

Start 2nd time
E|-----------------------------------------------------------------------------------|
B|-----------------------------------------------------------------------------------| X3
G|--12-12-12-12----12-12-12----12-12-12-11-11-11-11-4-4-4-4-----4-4-4----4-4-4-4-4-4-|
D|--x--x--x--x-----x--x--x-----x--x--x--x--x--x--x--x-x-x-x-----x-x-x----x-x-x-x-x-x-|
A|--10-10-10-10----10=10-10----10-1010=9--9--9--9--2-2-2-2-----2-2-2----2-2-2-2-2-2-|
D|-----------------------------------------------------------------------------------|
P.M

1:12                          this is the last time
E|----------------------|   ---------------------------------|
B|----------------------|X2 ---------------------------------|
G|--12-1212------4-4-4-|   --4----4-4-4-4-4-4--4----4----4--|
D|--x--x--x------x-x-x-|   --x----x-x-x-x-x-x--x----x----x--|
A|--10-10-10------2-2-2-|   --2----2-2-2-2-2-2--2----2----2--|
D|----------------------|   ---------------------------------|


0:35   Chorus
E|-----------------------------------------------|
B|-----------------------------------------------| X8
G|--12----14----16-------------------------------|
D|--x-----x-----x--------------------------------|
A|--10----12----14-------------------------------|
D|-----------------------------------------------|

1:47    Bridge
E|--------------------------------------------------------------------|
B|--------------------------------------------------------------------| X2
G|--------------------------------------------------------------------|
D|--2-2-2-2-2-2-2-2-2-2-2-2-2-2-2--5-5-5-5-5-5-5-5-5-5-5-5-5-5-5-5----|
A|--2-2-2-2-2-2-2-2-2-2-2-2-2-2-2--5-5-5-5-5-5-5-5-5-5-5-5-5-5-5-5----|
D|--2-2-2-2-2-2-2-2-2-2-2-2-2-2-2--5-5-5-5-5-5-5-5-5-5-5-5-5-5-5-5----|

1:58
E|--------------------------------------------------------------------|
B|--------------------------------------------------------------------| X2
G|--------------------------------------------------------------------|
D|--2-2-2-2-2-2-2-2-2-2-2-2-2-2-2--5-5-5-5-5-5-5-5-5-5-5-5-5-5-5-5----|
A|--2-2-2-2-2-2-2-2-2-2-2-2-2-2-2--5-5-5-5-5-5-5-5-5-5-5-5-5-5-5-5----|
D|--2-2-2-2-2-2-2-2-2-2-2-2-2-2-2--5-5-5-5-5-5-5-5-5-5-5-5-5-5-5-5----|

2:14       Chorus Lead 1
E|-----------------------------------------|
B|-----------------------------------------| X16
G|--12----14----16-------------------------|
D|--x1----x-----x--------------------------|
A|--10----12----14-------------------------|
D|-----------------------------------------|

2:38       Chorus Lead 2
E|--------------------------------------------------------------------------------------|
B|--------------------------------------------------------------------------------------|
G|--------------------------------------------------------------------------------------|
D|--12--11---9---7---11--12--14--12-----14---12---15-----14----12----17---15---14----12-|
A|--x----x---x---x---x---x---x---x------x----x----x------x-----x-----x----x----x-----x--|
D|--10---9---7---5---9---10--12--10-----12---10---13-----12----10----15---13---12----10-|


3:02 The End
E|--------------------------------------|
B|--------------------------------------|
G|--------------------------------------|
D|--2-2-2-----2----2-2-2-2--2-----------|
A|--2-2-2-----2----2-2-2-2--2-----------|
D|--2-2-2-----2----2-2-2-2--2-----------|

.  = palm mute
* = accented
'=' = let ring


8.Choke On This


Chorus/Intro-  the strumming looks right to me, but listen to the
               song to get it right
e]--------------------------------------------|
b]--------------------------------------------|
g]----------------------666666666-55555555----|
d]-888888-666-44444444--666666666-55555555----|   2X
a]-888888-666-44444444--444444444-33333333----|
d]-888888-666-44444444------------------------|
        ______________^__________________
  **on the 2nd time through, there's a little break right there**

Right before the verse there's a small riff, I can't tell exactly
what it is, because of the weird effect that is used in the recording,
but I think it goes like this:

e]----------------------|
b]----------------------|
g]----------------------|(with the crazy effect*... flanger? + scream tube???)
D]-1313131313-1010101010
a]-1111111111--8-8-8-8-8-|
d]-----------------------| then pick scrape

Verse-  (palm muted)
e]-----------------------------------------------------|
b]-----------------------------------------------------|
g]-----------------------------------------------------|
d]-88888888-666-444444444-333333333333-444444444444----|   2X
a]-88888888-666-444444444-333333333333-444444444444----|
d]-88888888-666-444444444-333333333333-444444444444----|
   ........ ... ......... ............ ...........*

Pre-Chorus -
e]---------] [--------------------------|
b]---------] [--------------------------|
g]---------] [--------------------------|
d]-88888888] [-888888-666666-44444444---|  3X
a]-88888888] [-888888-666666-44444444---|
d]-88888888] [-888888-666666-44444444---|
     "you're... you're addicted to the drug of lust..."

Chorus/Intro

Verse

Pre-Chorus

Chorus

Bridge
e]------------------------------------------|
b]------------------------------------------|
g]------------------------------------------|
d]-11=--------10=--------8=-------3----4--6-|
a]-11=--------10=--------8=-------3----4--6-|
d]-11=--------10=--------8=-------3----4--6-|
     "I here lie in your bed babe..."

e]----------------------------------------------|
b]----------------------------------------------|
g]-66--------55---------------------------------|
d]-66--------55--------88--------33----44--66---|  2X
a]-44--------33--------88--------33----44--66---|
d]---------------------88--------33----44--66---|
   **        **        **        **    **  **

Chorus


End on
e]----
b]----
g]----
D]-11=
A]-11=
D]-11=


9.NJ Falls Into The Atlantic


DROPPED D TUNING - Strings are (D A D G B E)


Guitar 1-Intro..."It's, 4 AM.."
e|----------------------------------------------------------------------------|
-|----------------------------------------------------------------------------|
-|----------------------------------------------------------------------------|
-|444444444444444x-0000000000000000x-7777777777777777x-7777777777777777x------|
-|444444444444444x-0000000000000000x-7777777777777777x-7777777777777777x------|
d|444444444444444x-0000000000000000x-7777777777777777x-6666666666666666x------|
pm...............  ................  ................  ................

-|----------------------------------------------------------------------------|
-|----------------------------------------------------------------------------|
-|----------------------------------------------------------------------------|
-|444444444444444x-0000000000000000x-7777777777777777x-7~---------------------|
-|444444444444444x-0000000000000000x-7777777777777777x-7~---------------------|
-|444444444444444x-0000000000000000x-7777777777777777x-6~---------------------|
pm...............  ................  ................

Guitar 1-Chorus (x2)
-|----------------------------------------------------------------------------|
-|----------------------------------------------------------------------------|
-|----------------------------------------------------------------------------|
-|444444444444444--0000000000000000--7777777777777777--7777777777777777-------|
-|444444444444444--0000000000000000--7777777777777777--7777777777777777-------|
-|444444444444444--0000000000000000--7777777777777777--6666666666666666-------|


Guitar 2-Chorus repeat (8x)
-|----------------------------------------------------------------------------|
-|----------------------------------------------------------------------------|
-|---10-10p7---7-----7-8p7---7------------------------------------------------|
-|88---------8-----8-------8--------------------------------------------------|
-|----------------------------------------------------------------------------|
-|----------------------------------------------------------------------------|

*Play this (only) on the 4th time for Guitar 2 instead of above, plays 4x's
-|----------------------------------------------------------------------------|
-|----------------------------------------------------------------------------|
-|8p7---7---------------------------------------------------------------------|
-|----8-----------------------------------------------------------------------|
-|----------------------------------------------------------------------------|
-|----------------------------------------------------------------------------|


Guitar 1-Verse *Let Chords Linger (2x) ..."So speak...your...mind"
-|----------------------------------------------------------------------------|
-|----------------------------------------------------------------------------|
-|----------------------------------------------------------------------------|
-|4~---------------0~---------------4~---------------0~-----------------------|
-|4~---------------0~---------------4~---------------0~-----------------------|
-|4~---------------0~---------------4~---------------0~-----------------------|

Guitar 2-Verse (2x)
-|---------------------------------------------------0~-----------------------|
-|----------------------------------10----9----7-----5~-----------------------|
-|--9-7~-------------9-7~------------9-99---99---9---7~---9-7~----------------|
-|8----------------8------------------------------------8---------------------|
-|----------------------------------------------------------------------------|
-|----------------------------------------------------------------------------|

Guitar 1- Pre Chorus.."Comming straight from of the wires..."
-|----------------------------------------------------------------------------|
-|----------------------------------------------------------------------------|
-|----------------------------------------------------------------------------|
-|44x--4x-4444x--4x-0000x--0x-0000x-0x-4444x-4x-4444x-4x----------------------|
-|44x--4x-4444x--4x-0000x--0x-0000x-0x-4444x-4x-4444x-4x----------------------|
-|44x--4x-4444x--4x-0000x--0x-0000x-0x-4444x-4x-4444x-4x----------------------|
pm..   .  ....   .  ....   .  ....  .  ....  .  ....  .

------------------------------------------------------------------------------|
------------------------------------------------------------------------------|
------------------------------------------------------------------------------|
-0000x-0x-0x-0-000000x--------------------------------------------------------|
-0000x-0x-0x-0-000000x--------------------------------------------------------|
-0000x-0x-0x-0-000000x--------------------------------------------------------|
 ....  .  .    ......
Guitar 2- Pre Chorus (7x)only played 7 times the 8th is below
-|----------------------------------------------------------------------------|
-|----------------------------------------------------------------------------|
-|---7---10p7--7--------------------------------------------------------------|
-|88x-8x-----8x---------------------------------------------------------------|
-|----------------------------------------------------------------------------|
-|----------------------------------------------------------------------------|
pm..  .      .

Do this on the 8th time after u play the above (7x)
-|----------------------------------------------------------------------------|
-|----------------------------------------------------------------------------|
-|----------------------------------------------------------------------------|
-|0-000000x-------------------------------------------------------------------|
-|0-000000x-------------------------------------------------------------------|
-|0-000000x-------------------------------------------------------------------|
pm  ......

Guitar 1- Chorus 2 (2x)
-|----------------------------------------------------------------------------|
-|----------------------------------------------------------------------------|
-|----------------------------------------------------------------------------|
-|4444444444444444-00x-00000000000000-7777777777777777-7777777777777777-------|
-|4444444444444444-00x-00000000000000-7777777777777777-7777777777777777-------|
-|4444444444444444-00x-00000000000000-7777777777777777-6666666666666666-------|
pm                 ..

Guitar 2-Chorus 2 repeat (8x)
-|-----------------------------------------------------------------------------|
-|-----------------------------------------------------------------------------|
-|---10-10p7---7-----7-8p7---7-------------------------------------------------|
-|88--------8----8------8------------------------------------------------------|
-|-----------------------------------------------------------------------------|
-|-----------------------------------------------------------------------------|


*Play this (only) on the 4th time for Guitar 2 instead of above, plays 4x's
-|----------------------------------------------------------------------------|
-|----------------------------------------------------------------------------|
-|8p7---7---------------------------------------------------------------------|
-|----8-----------------------------------------------------------------------|
-|----------------------------------------------------------------------------|
-|----------------------------------------------------------------------------|

Guitar 1-Verse 2 *Let Chords Linger (1x).."this falls on.."
-|----------------------------------------------------------------------------|
-|----------------------------------------------------------------------------|
-|----------------------------------------------------------------------------|
-|4~---------------0~---------------4~---------------0~-----------------------|
-|4~---------------0~---------------4~---------------0~-----------------------|
-|4~---------------0~---------------4~---------------0~-----------------------|

Guitar 2-Verse 2 (1x)
-|---------------------------------------------------0~-----------------------|
-|----------------------------------10----9----7-----5~-----------------------|
-|--9-7~-------------9-7~------------9-99---99---9---7~---9-7~----------------|
-|8----------------8------------------------------------8---------------------|
-|----------------------------------------------------------------------------|
-|----------------------------------------------------------------------------|

Guitar 1- Pre Chorus2..."Watching romance from afar.."
-|----------------------------------------------------------------------------|
-|----------------------------------------------------------------------------|
-|----------------------------------------------------------------------------|
-|44x--4x-4444x--4x-0000x--0x-0000x-0x-4444x-4x-4444x-4x----------------------|
-|44x--4x-4444x--4x-0000x--0x-0000x-0x-4444x-4x-4444x-4x----------------------|
-|44x--4x-4444x--4x-0000x--0x-0000x-0x-4444x-4x-4444x-4x----------------------|
pm..   .  ....   .  ....   .  ....  .  ....  .  ....  .

------------------------------------------------------------------------------|
------------------------------------------------------------------------------|
------------------------------------------------------------------------------|
-0000x-0x-0x-0-000000x--------------------------------------------------------|
-0000x-0x-0x-0-000000x--------------------------------------------------------|
-0000x-0x-0x-0-000000x--------------------------------------------------------|
 ....  .  .  . ......

Guitar 2- Pre Chorus2 (7x)only played 7 times the 8th is below
-|----------------------------------------------------------------------------|
-|----------------------------------------------------------------------------|
-|---7---10p7--7--------------------------------------------------------------|
-|88x-8x-----8x---------------------------------------------------------------|
-|----------------------------------------------------------------------------|
-|----------------------------------------------------------------------------|
pm..  .      .

Do this on the 8th time after u play the above (7x)
-|----------------------------------------------------------------------------|
-|----------------------------------------------------------------------------|
-|----------------------------------------------------------------------------|
-|0-000000x-------------------------------------------------------------------|
-|0-000000x-------------------------------------------------------------------|
-|0-000000x-------------------------------------------------------------------|
pm  ......

Guitar 1- Chorus 3 (2x)
-|----------------------------------------------------------------------------|
-|----------------------------------------------------------------------------|
-|----------------------------------------------------------------------------|
-|4444444444444444-00x-00000000000000-7777777777777777-7777777777777777-------|
-|4444444444444444-00x-00000000000000-7777777777777777-7777777777777777-------|
-|4444444444444444-00x-00000000000000-7777777777777777-6666666666666666-------|
pm                 ..

Guitar 2-Chorus 3 repeat (8x)
-|----------------------------------------------------------------------------|
-|----------------------------------------------------------------------------|
-|---10-10p7---7-----7-8p7---7------------------------------------------------|
-|88---------8-----8-------8--------------------------------------------------|
-|----------------------------------------------------------------------------|
-|----------------------------------------------------------------------------|

*Play this (only) on the 4th time for Guitar 2 instead of above, plays 4x's
-|----------------------------------------------------------------------------|
-|----------------------------------------------------------------------------|
-|8p7---7---------------------------------------------------------------------|
-|----8-----------------------------------------------------------------------|
-|----------------------------------------------------------------------------|
-|----------------------------------------------------------------------------|


Guitar 1-Bridge *Let Chords Linger (2x)..."An angel on his two knees.."
-|----------------------------------------------------------------------------|
-|----------------------------------------------------------------------------|
-|----------------------------------------------------------------------------|
-|4~---------------0~---------------4~---------------0~-----------------------|
-|4~---------------0~---------------4~---------------0~-----------------------|
-|4~---------------0~---------------4~---------------0~-----------------------|

Guitar 2-Bridge (4x) Careful with this part, doesnt keep playing, listen for timing..
-|---------------------|------------------------------------------------------|
-|---------------------|------------------------------------------------------|
-|9--11--9--7---6-7-6--|-5-7--5-4---------------------------------------------|
-|x--x---x--x---x-x-x--|-x-x--x-x---------------------------------------------|
-|7/-9\--7\-5\--4/5\4--|-7/9--7-6---------------------------------------------|
-|---------------------|------------------------------------------------------|
                        -Play this directly after u play the first one 4x, play this 1x


Guitar 1-Bridge part 2  (2x).."Its plain to see, the wind beneath the trees..."
-|----------------------------------------------------------------------------|
-|----------------------------------------------------------------------------|
-|----------------------------------------------------------------------------|
-|4~---------------0~---------------7~---------------7~-----------------------|
-|4~---------------0~---------------7~---------------7~-----------------------|
-|4~---------------0~---------------7~---------------6~-----------------------|


Guitar 2-Played through Bridge part 2 and 3 (4x)
-|---------------------|------------------------------------------------------|
-|---------------------|------------------------------------------------------|
-|9--11--9--7---6-7-6--|-777777-555555-4444-----------------------------------|
-|x--x---x--x---x-x-x--|-xxxxxx-xxxxxx-xxxx-----------------------------------|
-|7/-9\--7\-5\--4/5\4--|-999999-777777-6666-----------------------------------|
-|---------------------|------------------------------------------------------|


Guitar 1-Bridge part 3  (2x).."But in this place, im choked with my own air.."
-|----------------------------------------------------------------------------|
-|----------------------------------------------------------------------------|
-|----------------------------------------------------------------------------|
-|444444444444444--0000000000000000--7777777777777777--7777777777777777-------|
-|444444444444444--0000000000000000--7777777777777777--7777777777777777-------|
-|444444444444444--0000000000000000--7777777777777777--6666666666666666-------|

Guitar 1- Chorus 3 (2x)
-|----------------------------------------------------------------------------|
-|----------------------------------------------------------------------------|
-|----------------------------------------------------------------------------|
-|4444444444444444-00x-00000000000000-7777777777777777-7777777777777777---0~--|
-|4444444444444444-00x-00000000000000-7777777777777777-7777777777777777---0~--|
-|4444444444444444-00x-00000000000000-7777777777777777-6666666666666666---0~--|
pm                 ..
Guitar 2-Chorus 3 repeat (8x)
-|----------------------------------------------------------------------------|
-|----------------------------------------------------------------------------|
-|---10-10p7---7-----7-8p7---7------------------------------------------------|
-|88---------8-----8-------8--------------------------------------------------|
-|----------------------------------------------------------------------------|
-|----------------------------------------------------------------------------|

*Play this (only) on the 4th time for Guitar 2 instead of above, plays 4x's
-|----------------------------------------------------------------------------|
-|----------------------------------------------------------------------------|
-|8p7---7---------------------------------------------------------------------|
-|----8-----------------------------------------------------------------------|
-|----------------------------------------------------------------------------|
-|----------------------------------------------------------------------------|

10.Let It Enfold You

DROPPED D TUNING - Strings are (D A D G B E)

~ = let ring
h = hammer on
p = pull of

Intro (Guitar 1):
|--------------------------------------------------------------|
|----7---8--7---5--7---8--7---7--------------------------------|
|--7---7------7------7------7--------6h7p67-6h7p67-6h7p677777--|
|--------------------------------x3----------------------------|
|--------------------------------------------------------------|
|--------------------------------------------------------------|

Intro (Guitar 2):
|---------------------------------------------------------------------------|
|---------------------------------------------------------------------------|
|---------------------------------------------------------------------------|
|--9999999999999999-5555555555555555-0000000000000000-4444444444444444------|
|--9999999999999999-5555555555555555-0000000000000000-4444444444444444------|
|--9999999999999999-5555555555555555-0000000000000000-4444444444444444------|

Verse (Guitar 2):
|---------------------------------------------------------------------------|
|---------------------------------------------------------------------------|
|------------------------------------7777777777777777-----------------------|
|--0000000000000000-4444444444444444-7777777777777777-7777777777777777------|
|--0000000000000000-4444444444444444-5555555555555555-7777777777777777------|
|--0000000000000000-4444444444444444-5555555555555555-7777777777777777------|

Verse (Guitar 1)
|---------------------------------------------------------------------------|
|-10------------------------------------------------------------------------|
|----11---------------------------------------------------------------------|
|-------12------------------------------------------------------------------|
|---------------------------------------------------------------------------|
|---------------------------------------------------------------------------|

Pre-Chorus (Guitar 2):
|---------------------------------------------------------------------------|
|---------------------------------------------------------------------------|
|---------------------------------------------------------------------------|
|--222222222222-4444-5555555555555555-0000000000000000-777777777777-5-7-----|
|--222222222222-4444-5555555555555555-0000000000000000-777777777777-5-7-----|
|--222222222222-4444-5555555555555555-0000000000000000-777777777777-5-7-----|

Chorus (Guitar 1):
|--------------------------------------------------------------|
|----7---8--7---5--7---8--7---7--------------------------------|
|--7---7------7------7------7--------6h7p67-6h7p67-6h7p677777--|
|--------------------------------x3----------------------------|
|--------------------------------------------------------------|
|--------------------------------------------------------------|

Chorus (Guitar 2):
|---------------------------------------------------------------------------|
|---------------------------------------------------------------------------|
|---------------------------------------------------------------------------|
|--9999999999999999-5555555555555555-0000000000000000-4444444444444444------|
|--9999999999999999-5555555555555555-0000000000000000-4444444444444444------|
|--9999999999999999-5555555555555555-0000000000000000-4444444444444444------|

Verse (Guitar 2):
|---------------------------------------------------------------------------|
|---------------------------------------------------------------------------|
|------------------------------------7777777777777777-----------------------|
|--0000000000000000-4444444444444444-7777777777777777-7777777777777777------|
|--0000000000000000-4444444444444444-5555555555555555-7777777777777777------|
|--0000000000000000-4444444444444444-5555555555555555-7777777777777777------|

Verse (Guitar 1)
|---------------------------------------------------------------------------|
|-10------------------------------------------------------------------------|
|----11---------------------------------------------------------------------|
|-------12------------------------------------------------------------------|
|---------------------------------------------------------------------------|
|---------------------------------------------------------------------------|

Pre-Chorus (Guitar 2):
|---------------------------------------------------------------------------|
|---------------------------------------------------------------------------|
|---------------------------------------------------------------------------|
|--222222222222-4444-5555555555555555-0000000000000000-777777777777-5-7-----|
|--222222222222-4444-5555555555555555-0000000000000000-777777777777-5-7-----|
|--222222222222-4444-5555555555555555-0000000000000000-777777777777-5-7-----|

Chorus (Guitar 1):
|--------------------------------------------------------------|
|----7---8--7---5--7---8--7---7--------------------------------|
|--7---7------7------7------7--------6h7p67-6h7p67-6h7p677777--|
|--------------------------------x3----------------------------|
|--------------------------------------------------------------|
|--------------------------------------------------------------|

Chorus (Guitar 2):
|---------------------------------------------------------------------------|
|---------------------------------------------------------------------------|
|---------------------------------------------------------------------------|
|--9999999999999999-5555555555555555-0000000000000000-4444444444444444------|
|--9999999999999999-5555555555555555-0000000000000000-4444444444444444------|
|--9999999999999999-5555555555555555-0000000000000000-4444444444444444------|


Bridge 2 (Guitar 2):
|---------------------------------------------------------------------------|
|---------------------------------------------------------------------------|
|---------------------------------------------------------------------------|
|--9999999999999999-5555555555555555-0000000000000000-7777777777777777------|
|--9999999999999999-5555555555555555-0000000000000000-4444444444444444------|
|--9999999999999999-5555555555555555-0000000000000000-4444444444444444------|

|-----------------------------------------------------------------------------|
|-----------------------------------------------------------------------------|
|--7~~~----7------------------------------------------------------------------|
|--7~~~-55-7~~~~--------------------------------------------------------------|
|--5~~~-55-5~~~~--------------------------------------------------------------|
|--5~~~-55-5~~~~--------------------------------------------------------------|


Riff 1 (Guitar 2):
|-----------------------------------------5-------------------------------------|
|---7----7----7----7----7----7----7-----7---7-7---------------------------------|
|----7----7----7----7----7----7----7-----7---7----------------------------------|
|-------------------------------------------------------------------------------|
|--------------------------------0----0-----------------------------------------|
|--0----0----4----4----5----5---------------------------------------------------|
let all notes ring

Riff 1 (Guitar 1):
|---------------------------------------------------------------------------|
|--33333333-----------------------------------------------------------------|
|--22222222-----------------------------------------------------------------|
|--00000000-44444444-55555555-77777777--------------------------------------|
|--00000000-44444444-55555555-77777777--------------------------------------|
|--00000000-44444444-55555555-77777777--------------------------------------|


Outro (Guitar 1):
|---------------------------------------------------------------------------|
|---------------------------------------------------------------------------|
|--1212121212121212121212-1111111111-9999-77777777777777--------------------|
|--x-x-x-x-x-x-x-x-x-x-x--x-x-x-x-x--xxxx-xxxxxxxxxxxxxx--------------------|
|--1010101010101010101010-9-9-9-9-9--7777-55555555555555--------------------|
|---------------------------------------------------------------------------|

|------------------------------------|--------------------------------------|
|------------------------------------|--------------------------------------|
|--11111111111111111111111111-121212-|-999--77------------------------------|
|--x-x-x-x-x-x-x-x-x-x-x-x-x--x-x-x--|-xxx--xx------------------------------| x4
|--9-9-9-9-9-9-9-9-9-9-9-9-9--101010-|-777--55------------------------------|
|------------------------------------|--------------------------------------|

Bridge (Guitar 2):
|---------------------------------------------------------------------------|
|---------------------------------------------------------------------------|
|---------------------------------------------------------------------------|
|--222222222222-4444-5555555555555555-0000000000000000-777777777777---------|
|--222222222222-4444-5555555555555555-0000000000000000-777777777777---------|
|--222222222222-4444-5555555555555555-0000000000000000-777777777777---------|

Guitar 2 ends on:
|----------|
|----------|
|----------|
|--0~~~~---|
|--0~~~~---|
|--0~~~~---|

11.Irony of Dying On Your Birthday


DROPPED D TUNING - Strings are (D A D G B E)


Guitar One

Intro                   |then guitar 2| this part (2X)
e|----------------------|-------------|---------------------------------------|
 |----------------------|-------------|---------------------------------------|
 |-1212-1212-1212-12-13-|-------------|-1212-1212-1212-12-13--77-77-77-7-8-8--|
 |-x-x--x-x--x-x--x--x--|-------------|-x-x--x-x--x-x--x--x---xx-xx-xx-x-x-x--|
 |-1010-1010-1010-10-11-|-------------|-1010-1010-1010-10-11--55-55-55-5-6-6\-|
E|----------------------|-------------|---------------------------------------|

Intro Cont. - then this (2X)
e|-------------------------------------------------------|
 |-------------------------------------------------------|
 |-1212121212121212-13131313131313-777777-88-10101010-10-|
 |-x-x-x-x-x-x-x-x--x-x-x-x-x-x-x--xxxxxx-xx-x-x-x-x--x--|
 |-1010101010101010-11111111111111-555555/66/8-8-8-8--8\-|
E|-------------------------------------------------------|

Verse - "I just know, we don't astound in time..." (X2)
e|---------------------------------------------------------------------|
 |---------------------------------------------------------------------|
 |---------------------------------------------------------------------|
 |-1010-1010-1010-1010-1010-1010-1010-1010--66-66-66-66-66-66-66666666-|
 |-1010-1010-1010-1010-1010-1010-1010-1010--66-66-66-66-66-66-66666666-|
E|-1010-1010-1010-1010-1010-1010-1010-1010/-66-66-66-66-66-66-66666666-|
PM . .  . .  . .  . .  . .  . .  . .  . .   .. .. .. .. .. .. ........

Pre Chorus - "So follow, your bliss, and destroy, the beauty."
e|--------------------------------------------------|
 |--------------------------------------------------|
 |--------------------------------------------------|
 |-1010-5h7-8-6-66-0h1h3-1-10-1010-5h7-8-6-66-5~-6~-|
 |-1010-------6-66---------10-1010-------6-66-5~-6~-|
E|-1010-------6-66---------10-1010-------6-66-5~-6~-|

Chorus - "I'll lock myself alone and I will..."
e|--------------------------------------------------|
 |--------------------------------------------------|
 |-8888888-107-8-88888888-1212121212121212-7777-5-7-|
 |-xxxxxxx-x-x-x-xxxxxxxx-x-x-x-x-x-x-x-x--xxxx-x-x-|
 |-6666666\8-5-6-66666666-1010101010101010-5555-3-5-|
E|--------------------------------------------------|

Repeat Verse
Repeat Pre-Chorus

2nd Chorus - "I'll lock myself alone and I will..."
e|--------------------------------------------------|
 |--------------------------------------------------|
 |-8888888-107-8-88888888-1212121212121212-7777-5-7-|
 |-xxxxxxx-x-x-x-xxxxxxxx-x-x-x-x-x-x-x-x--xxxx-x-x-|
 |-6666666\8-5-6-66666666-1010101010101010-5555-3-5-|
E|--------------------------------------------------|

2nd Chorus Cont. - "And maybe I don't understand..."
e|--------------------------------------------|
 |--------------------------------------------|
 |-8888888-107-8-88888888-1212121212121212-7~-|
 |-xxxxxxx-x-x-x-xxxxxxxx-x-x-x-x-x-x-x-x--x~-|
 |-6666666\8-5-6-66666666-1010101010101010-5~-|
E|--------------------------------------------|

Bridge - "Colors blind, the eyes, self defend..."
e|-------------------------------------------|
 |-------------------------------------------|
 |-------------------------------------------|
 |-1010101010-10--66666-6--11111-1-333-333-3-|
 |-1010101010-10--66666-6--11111-1-333-333-3-|
E|-1010101010-10\-66666-6\-11111-1-333-333-3-|
PM . . . . .  .   ..... .  ..... . ... ... .

Bridge Cont.
e|-------------------------------------------|
 |-------------------------------------------|
 |-------------------------------------------|
 |-1010101010-10--66666-6--11111-1-333-333-3-|
 |-1010101010-10--66666-6--11111-1-333-333-3-|
E|-1010101010-10\-66666-6\-11111-1-333-333-3-|
PM . . . . .  .   ..... .  ..... . ... ... .

Bridge Cont.
e|-----------------------------------------------------------|
 |-----------------------------------------------------------|
 |--------------------------------------1212-1212-1212-12-13-|
 |-1010-1010-66-66-11-11-33-33-33-33-33-1010-1010-1010-10-11-|
 |-1010-1010-66-66-11-11-33-33-33-33-33-1010-1010-1010-10-11-|
E|-1010-1010-66-66-11-11-33-33-33-33-33-1010-1010-1010-10-11-|

Bridge Cont.
e|-------------------------------------------|
 |-------------------------------------------|
 |-77-77-77-7-8-8----------------------------|
 |-55-55-55-5-6-6--11-11-11-11-33-33-3333333-|
 |-55-55-55-5-6-6--11-11-11-11-33-33-3333333-|
E|-55-55-55-5-6-6\-11-11-11-11-33-33-3333333-|

Repeat Chorus

3rd Chorus - (X2)
e|---------------------------------------------------------|
 |---------------------------------------------------------|
 |-1212121212-10-888-1313131313-12-101010-1212121212121212-|
 |-x-x-x-x-x--x--xxx-x-x-x-x-x--x--x-x-x--x-x-x-x-x-x-x-x--|
 |-1010101010-8--666-1111111111-10-8-8-8--1010101010101010-|
E|---------------------------------------------------------|

3rd Chorus
e|-----------|
 |-----------|
 |-77777-5-7-|
 |-xxxxx-x-x-
 |-55555-3-5-|
E|-----------|

End on this:
e|----
 |----
 |-8--
 |-x--
 |-6\-
E|----

Guitar Two


Intro |Guitar One|then guitar 2 |Repeat this (4X)
e|----|----------|--------------|--------------------------------------|
 |----|----------|--------------|--------------------------------------|
 |----|----------|-88-88-88-77--|--1212-1212-1212-1313--88-88-88-77-8--|
 |----|----------|-66-66-66-66--|--1010-1010-1010-1111--66-66-66-66-6--|
 |----|----------|-66-66-66-66--|--1010-1010-1010-1111--66-66-66-66-6--|
E|----|----------|-66-66-66-66--|--1010-1010-1010-1111--66-66-66-66-6\-|

Verse - "I just know, we don't astound in time..." (X2)
e|---------------------------------------------------------------------|
 |---------------------------------------------------------------------|
 |---------------------------------------------------------------------|
 |-1010-1010-1010-1010-1010-1010-1010-1010--66-66-66-66-66-66-66666666-|
 |-1010-1010-1010-1010-1010-1010-1010-1010--66-66-66-66-66-66-66666666-|
E|-1010-1010-1010-1010-1010-1010-1010-1010/-66-66-66-66-66-66-66666666-|
PM . .  . .  . .  . .  . .  . .  . .  . .   .. .. .. .. .. .. ........

Pre Chorus - "So follow, your bliss, and destroy, the beauty."
e|--------------------------------------------------|
 |--------------------------------------------------|
 |--------------------------------------------------|
 |-1010--------6-66-------10-1010--------6-66-5~-6~-|
 |-1010-6h8-10-6-66-6h8-6-10-1010-6h8-10-6-66-5~-6~-|
E|-1010--------6-66-------10-1010--------6-66-5~-6~-|

Chorus - "I'll lock myself alone and I will..." (X2)
e|-----------------------------------------------|
 |-----------------------------------------------|
 |----------12121212------8888-------------------|
 |-10101010-10101010-6666-6666-11111111-88888888-|
 |-10101010-10101010-6666-6666-11111111-88888888-|
E|-10101010-10101010-6666-6666-11111111-88888888-|

Repeat Verse
Repeat Pre-Chorus

2nd Chorus - "I'll lock myself alone and I will..."
e|-----------------------------------------------|
 |-----------------------------------------------|
 |----------12121212------8888-------------------|
 |-10101010-10101010-6666-6666-11111111-88888888-|
 |-10101010-10101010-6666-6666-11111111-88888888-|
E|-10101010-10101010-6666-6666-11111111-88888888-|

2nd Chorus Cont. - "And maybe I don't understand..."
e|-----------------------------------------|
 |-----------------------------------------|
 |----------12121212------8888-------------|
 |-10101010-10101010-6666-6666-11111111-8~-|
 |-10101010-10101010-6666-6666-11111111-8~-|
E|-10101010-10101010-6666-6666-11111111-8~-|

Bridge - "Colors blind, the eyes, self defend..." (X2)
e|---------------------------------------------------------------|
 |---------------------------------------------------------------|
 |-88-77---88-77---5h7--88-77---88-77---5h7--88-77---88-77---5h7-|
 |-------8-------8------------8-------8------------8-------8-----|
 |---------------------------------------------------------------|
E|---------------------------------------------------------------|
PM .. .. . .. .. .      .. .. . .. .. .      .. .. . .. .. .

Bridge Cont.
e|----------------------|
 |----------------------|
 |-1010101010-888-7h8p7-|
 |----------------------|
 |----------------------|
E|----------------------|

Repeat Bridge WITHOUT PM(palm mute)(X2)
Repeat Chorus 2X (each chorus being 2 X each)

Ending of 4th chorus
e|-----------------|
 |-----------------|
 |-----------------|
 |-888-8-888-8-10\-|
 |-888-8-888-8-10\-|
E|-888-8-888-8-10\-|
PM ...   ...

12.Angela Baker and My Obsession With Fire


DROPPED D TUNING - Strings are (D A D G B E)


Guitar One

Intro - Guitar One only

Chorus - (No Words)
e|-0-0-0-0-0-0-0-0--0-0-0-0-0-0-0-0--0-0-0-0-0-0-0-0--0-0-0-0-0-0-0-0-|
 |-5-4-0-5-4-0-5-4--5-4-0-5-4-0-5-4--7-4-0-7-4-0-7-4--5-4-0-5-4-0-5-4-|
 |--------------------------------------------------------------------|
 |--------------------------------------------------------------------|
 |--------------------------------------------------------------------|
E|--------------------------------------------------------------------|

Chorus Cont.
e|-0-0-0-0-0-0-0-0--0-0-0-0-0-0-0-0-----------------------------------|
 |-5-4-0-5-4-0-5-4--5-4-0-5-4-0-5-4-----0----0-----0----0----0--------|
 |-----------------------------------1h2--1h2---1h2--1h2--1h2--1-2----|
 |-----------------------------------------------------------------2~-|
 |-----------------------------------------------------------------2~-|
E|-----------------------------------------------------------------2~-|

Verse - "I won't forget the day that..." (X2)
e|-----0000-0000-0000-----0000-0000-0000-----0000-0000-0000-----0000-0000-0000-|
 |-----5555-4444-2222-----5555-4444-2222-----5555-4444-2222-----5555-4444-7777-|
 |-----------------------------------------------------------------------------|
 |-444----------------444----------------222----------------222----------------|
 |-444----------------444----------------222----------------222----------------|
E|-444----------------444----------------222----------------222----------------|

Pre-Chorus - "Love me back to the bliss of ignorance..." (X2)
e|-0-00-0-00-0-0-00-0-00-0-0-0-0--00-0-000000000-|
 |-4h55-4h55-7-4h55-4h55-7-101010-99-7-555555555-|
 |-----------------------------------------------|
 |-----------------------------------------------|
 |-----------------------------------------------|
E|-----------------------------------------------|

Repeat Chorus
Repeat Verse
Repeat Pre Chorus
Repeat Chorus

Bridge                     "I stand outside my pretty house..."
e|----------------------------------------------------------------------------|
 |----------------------------------------------------------------------------|
 |-------------------------666-6-666-6-6666-----------------------------------|
 |-7~--7-2~----7~--7-2~----666-6-666-6-6666-777-7-777-7-7777-222-2-222-2-2222-|
 |-7~--7-2~----7~--7-2~----444-4-444-4-4444-777-7-777-7-7777-222-2-222-2-2222-|
E|-7~--7/2~----7~--7/2~---------------------777-7-777-7-7777-222-2-222-2-2222-|
PM                         ... . ... . .... ... . ... . .... ... . ... . ....
                    |"I call the cops to let them know..."
e|------------------|--------------------------------------------------------------|
 |------------------|--------------------------------------------------------------|
 |------------------|-666-6-666-6-6666---------------------------------------------|
 |-222-2-222-2-2222-|-666-6-666-6-6666-777-7-777-7-7777-222-2-222-2-2222-222-2-222-|
 |-222-2-222-2-2222-|-444-4-444-4-4444-777-7-777-7-7777-222-2-222-2-2222-222-2-222-|
E|-222-2-222-2-2222-|------------------777-7-777-7-7777-222-2-222-2-2222-222-2-222-|
PM ... . ... . ....   ... . ... . .... ... . ... . .... ... . ... . .... ... . ...

          |"I thought I wanted this, I thought..."
e|--------|--------------------------------------------------------------------------|
 |--------|--------------------------------------------------------------------------|
 |--------|-6-6666-6-6666-6-66-------------------------------------------------------|
 |-2-2222-|-6-6666-6-6666-6-66-7-7777-7-7777-7-77-2-2222-2-2222-2-22-2-2222-2-2222-2-|
 |-2-2222-|-4-4444-4-4444-4-44-7-7777-7-7777-7-77-2-2222-2-2222-2-22-2-2222-2-2222-2-|
E|-2-2222-|--------------------7-7777-7-7777-7-77-2-2222-2-2222-2-22-2-2222-2-2222-2-|
PM . ....     ....   ....   ..   ....   ....   ..   ....   ....   ..   ....   ....

e|--------------------------------------------------------------------------|
 |--------------------------------------------------------------------------|
 |-6-6666-6-6666-6-66-------------------------------------------------------|
 |-6-6666-6-6666-6-66-7-7777-7-7777-7-77-2-22222222-2-----------------------|
 |-4-4444-4-4444-4-44-7-7777-7-7777-7-77-2-22222222-2-----------------------|
E|--------------------7-7777-7-7777-7-77-2-22222222-2-----------------------|
PM   ....   ....   ..   ....   ....   ..   ........

Ending - "I said I wanted some more attention..." (X2)
e|------------------------------------|
 |------------------------------------|
 |-6666-6-----------------------------|
 |-6666-6---77-7-7---2222-2--22-2-2---|
 |-4444-4/--77-7-7---2222-2--22-2-2---|
E|----------77-7-7/--2222-2~-22-2-2/--|

Ending Part 2 - "I think that the truth is im scared..." (X2)
e|-----------------------------------|
 |-----------------------------------|
 |-66666666--------------------------|
 |-66666666-77-7777-22222222-22-2222-|
 |-44444444-77-7777-22222222-22-2222-|
E|----------77-7777-22222222-22-2222-|

Ending Part 3
e|-------------------|
 |-------------------|
 |-------------------|
 |-11~-----7~-----2~-|
 |-11~-----7~-----2~-|
E|-11~-----7~-----2~-|

13.Martini Kiss


DROPPED D TUNING - Strings are (D A D G B E)


Intro pt.1 x2
pm
e|----------------------------------------------------------------------------|
B|----------------------------------------------------------------------------|
G|----------------------------------------------------------------------------|
D|----------------------------------------------------------------------------|
A|------------------8-8-8-7-7----------------------------8-8-8-10-10-10-7-7-7-|
D|0-0-0-8-8-8-7-7-7-----------10-10-10-0-0-0-8-8-8-7-7-7----------------------|
Intro pt.2
e|------------|
B|------------|
G|------------|
D|-8\10-0-3-2-|
A|-8\10-0-3-2-|
D|-8\10-0-3-2-|
Intro pt.1
Verse same as intro pt.2 but palm muted (open on the 10)
Pre-chorus same as intro pt.2
Chorus
e|-------|
B|-------|
G|-------|
D|-3-2-0-|
A|-3-2-0-|
D|-3-2-0-|
Intro pt.2
Verse
Pre-chorus
Chorus
Intro pt.1
Outro Pt.1
Guitar 2
e|---------------|
B|---------------|
G|-------10-9----|
D|-0-8-7-10-9-10-|
A|-0-8-7-8--7-10-|
D|-0-8-7------10-|
Outro Pt.2
Guitar 2
e|------|---|
B|------|---|
G|------|---|
D|-8-10-|-0-| the 0 part is palm muted with a fast pattern
A|-8-10-|-0-|
D|-8-10-|-0-|
Comments