Senses Fail - Let It Enfold You Chords & Tabs

 

Let It Enfold You Chords & Tabs

Senses Fail Chords & Tabs

Version: 2 Type: Tab 0 ratings
1 star 2 stars 3 stars 4 stars 5 stars
comments

Let It Enfold You Tab

Song: Let It Enfold You
By: Senses Fail
Album: Let It Enfold You
tabbed by: pwrchrdprincess

Guitar 1 in Standard tuning
Guitar 2 in Drop D tuning

* = palm mute
~ = let ring
h = hammer on
p = pull of

Intro (Guitar 1):
|--------------------------------------------------------------|
|----7---8--7---5--7---8--7---7--------------------------------|
|--7---7------7------7------7--------6h7p67-6h7p67-6h7p677777--|
|--------------------------------x3----------------------------|
|--------------------------------------------------------------|
|--------------------------------------------------------------|

Intro (Guitar 2):
|---------------------------------------------------------------------------|
|---------------------------------------------------------------------------|
|---------------------------------------------------------------------------|
|--0000000000000000-4444444444444444-5555555555555555-7777777777777777------|
|--0000000000000000-4444444444444444-5555555555555555-7777777777777777------|
|--0000000000000000-4444444444444444-5555555555555555-7777777777777777------|

Verse (Guitar 2):
|---------------------------------------------------------------------------|
|---------------------------------------------------------------------------|
|---------------------------------------------------------------------------|
|--00-0000-00-0000-00-0000-00-0000-44-4444-44-4444-44-4444------------------|
|--00-0000-00-0000-00-0000-00-0000-44-4444-44-4444-44-4444------------------|
|--00-0000-00-0000-00-0000-00-0000-44-4444-44-4444-44-4444------------------|
      ****    ****    ****    ****    ****    ****    ****
|---------------------------------------------------------------------------|
|---------------------------------------------------------------------------|
|---------------------------------------------------------------------------|
|--55-5555-55-5555-55-5555-55-5555-77-7777-77-7777-77-7777------------------|
|--55-5555-55-5555-55-5555-55-5555-77-7777-77-7777-77-7777------------------|
|--55-5555-55-5555-55-5555-55-5555-77-7777-77-7777-77-7777------------------|
      ****    ****    ****    ****    ****    ****    ****

Verse (Guitar 1) after Guitar 2 plays Verse once:
|---------------------------------------------------------------------------|
|--7--8--7-5--7--8----------------------------------------------------------|
|---77-77-7-77-77-7---------------------------------------------------------|
|--------------------x4-----------------------------------------------------|
|---------------------------------------------------------------------------|
|---------------------------------------------------------------------------|
   **************** (light pm - release near end of fourth repeat)

Bridge (Guitar 2):
|---------------------------------------------------------------------------|
|---------------------------------------------------------------------------|
|-------------------------------------7777777777777777----------------------|
|--000000000000-4444-5555555555555555-7777777777777777-777777777777-5-7-----|
|--000000000000-4444-5555555555555555-5555555555555555-777777777777-5-7-----|
|--000000000000-4444-5555555555555555------------------777777777777-5-7-----|


Intro for Chorus

Guitar 1 plays Verse once

Guitar 1 plays Verse again as Guitar 2 plays Verse at same time

Bridge

Intro for Chorus

[ Tab from: http://www.guitartabs.cc/tabs/s/senses_fail/let_it_enfold_you_tab_ver_2.html ]
Bridge 2 (Guitar 2):
|---------------------------------------------------------------------------|
|---------------------------------------------------------------------------|
|------------------------------------7777777777777777-----------------------|
|--9999999999999999-5555555555555555-7777777777777777-7777777777777777------|
|--9999999999999999-5555555555555555-5555555555555555-7777777777777777------|
|--9999999999999999-5555555555555555------------------7777777777777777------|

|---------------------------------------------------------------------------|
|---------------------------------------------------------------------------|
|---------------------------------------------------------------------------|
|--4~~~-444-4~~~~-----------------------------------------------------------|
|--4~~~-444-4~~~~-----------------------------------------------------------|
|--4~~~-444-4~~~~-----------------------------------------------------------|
        ***

Riff 1 (Guitar 2):
|---------------------------------------------------------------------------|
|---7----7----7----7----7----7----7----7------------------------------------|
|----7----7----7----7----7----7----7----7-----------------------------------|
|--0----0----4----4----5----5----7----7------x4-----------------------------|
|---------------------------------------------------------------------------|
|---------------------------------------------------------------------------|
let all notes ring

Riff 1 (Guitar 1):
|--33333333----------33333333-----------------------------------------------|
|--22222222----------33333333-22222222--------------------------------------|
|--33333333----------00000000-22222222--------------------------------------|
|--00000000-44444444-00000000-22222222--------------------------------------|
|--00000000-44444444-22222222-00000000-------x6-----------------------------|
|-----------22222222-33333333-----------------------------------------------|


Outro (Guitar 1):
|---------------------------------------------------------------------------|
|---------------------------------------------------------------------------|
|--1212121212121212121212-1111111111-9999-77777777777777-121212-------------|
|--x-x-x-x-x-x-x-x-x-x-x--x-x-x-x-x--xxxx-xxxxxxxxxxxxxx-x-x-x--------------|
|--1010101010101010101010-9-9-9-9-9--7777-55555555555555-101010-------------|
|---------------------------------------------------------------------------|

|------------------------------------|--------------------------------------|
|------------------------------------|--------------------------------------|
|--11111111111111111111111111-121212-|-999-111111-77--999-111111-77---------|
|--x-x-x-x-x-x-x-x-x-x-x-x-x--x-x-x--|-xxx-x-x-x--xx--xxx-x-x-x--xx---------| x4
|--9-9-9-9-9-9-9-9-9-9-9-9-9--101010-|-777-9-9-9--55--777-9-9-9--55---------|
|------------------------------------|--------------------------------------|

                                      on the fourth repeat ends as:
|------------------------------------|--------------------------------------|
|------------------------------------|--------------------------------------|
|------------------------------------|-999-111111-77--999-111111-99-7~~~~---|
|------------------------------------|-xxx-x-x-x--xx--xxx-x-x-x--xx-x~~~~---|
|------------------------------------|-777-9-9-9--55--777-9-9-9--77-5~~~~---|
|------------------------------------|--------------------------------------|

Outro (Guitar 2):
|---------------------------------------------------------------------------|
|---------------------------------------------------------------------------|
|-------------------------------------7777777777777777----------------------|
|--000000000000-4444-5555555555555555-7777777777777777-7777777777777777--x4-|
|--000000000000-4444-5555555555555555-5555555555555555-7777777777777777-----|
|--000000000000-4444-5555555555555555------------------7777777777777777-----|

Guitar 2 ends on:
|----------|
|----------|
|----------|
|--0~~~~---|
|--0~~~~---|
|--0~~~~---|


this tab is pretty near close to correct. if you have any questions, comments, or 
my email address is Lisa1330@aol.com
Comments