Senses Fail - Lady In A Blue Dress Chords & Tabs

 

Lady In A Blue Dress Chords & Tabs

Senses Fail Chords & Tabs

Version: 4 Type: Tab 0 ratings
1 star 2 stars 3 stars 4 stars 5 stars
comments

Lady In A Blue Dress Tab

Senses Fail --- Lady in a blue dress

This is my fist tab but im pretty sure it is correct have a go and hopefully you will 
it great song even better band !!!! Benjamin

Intro Guitar 1   ( Play once then the first half again so finish on 0,5,7)
e|--5-----0----0-----0---------------------------------------------|
B|--0-x12-5-x4-7-x12-5-x4------------------------------------------|
G|--7-----7----7-----7---------------------------------------------|
D|-----------------------------------------------------------------|
A|-----------------------------------------------------------------|
E|-----------------------------------------------------------------|

Intro Guitar 2
( Play once then the first half again in time wit the chord  changes of guitar 1 ) ( 
guitar 1 and 2 half some echo effect on )
e|-----------------------------------------------------------------|
B|-----------------------------------------------------------------|
G|-----------------------------------------------------------------|
D|9----0-----5----0------------------------------------------------|
A|9-x1-0-x1--5-x1-0-x1---------------------------------------------|
E|9----0-----5----0------------------------------------------------|

Intro part 2 --- As soon as the drumms kick in guitar 1 stays the same but guitar 2 now 
the same strumming pattern as guitar 1, both with distortion, play this twice round.

Verse Guitar 1
e|5--------------0----0----------------------0-----------------------|
B|0-staccato x6--5-x4-7-x4-then staccato x6--5-x4--------------------|
G|7--------------7----7----------------------7-----------------------|
D|-------------------------------------------------------------------|  x2
A|-------------------------------------------------------------------|
E|-------------------------------------------------------------------|

Verse Guitar 2
e|-------------------------------------------------------------------|
B|-------------------------------------------------------------------|
G|-------------------------------------------------------------------|
D|9--------------0-----5---------------------0-----------------------|  x2
A|9-staccato x 6-0-x4--5-x4 then staccato x6-0-x4--------------------|
E|9--------------0-----5---------------------0-----------------------|

Pre Chorus --- We repeat the inro part 2 for this but just with no as much distortion 
this twice round
[ Tab from: http://www.guitartabs.cc/tabs/s/senses_fail/lady_in_a_blue_dress_tab_ver_4.html ]
Chorus Guitar 1 ( riff )
e|--55-------------------------------------------------------------|
B|----77--7755--775------------------------------------------------|
G|------77----77---7-----------------------------------------------|
D|-----------------------------------------------------------------|
A|-----------------------------------------------------------------|
E|-----------------------------------------------------------------|
( keep doing this riff untill the end of the chords of guitar 2 )

Chorus Guitar 2
e|-----------------------------------------------------------------|
B|-----------------------------------------------------------------|
G|-----------------------------------------------------------------|
D|0-----7-----9----7----5------------------------------------------| x 2
A|0-x16-7-x16-9-x8-7-x8-5-x16--------------------------------------|
E|0-----7-----9----7----5------------------------------------------|

Then .Verse
     .Pre chorus ( which is intro 2 )
     .Chorus

Bridge Guitar 1
e|-----------------------------------------------------------------|
B|-----------------------------------------------------------------|
G|11-------/----14---7------12------11-------9---------------------|
D|**-x 12-/-----**---*--x 8-**--x 4-**---x 2-*--x 2----------------|
A|9------/------12---5------10------9--------7---------------------|
E|-----------------------------------------------------------------|

Bridge guitar 2
e|-----------------------------------------------------------------|
B|-----------------------------------------------------------------|
G|-----------------------------------------------------------------|
D|9------0-------5------0------------------------------------------|
A|9-x 12-0- x 1--5-x 12-0-x 1--------------------------------------|
E|9------0-------5------0------------------------------------------|

Then .Verse
     .Chorus
     Then end on
e|-----------------------------------------------------------------|
B|-----------------------------------------------------------------|
G|-----------------------------------------------------------------|
D|5----4-----2------0----------------------------------------------|
A|5 x8-4- x8-2- x8--0----------------------------------------------|
E|5----4-----2------0----------------------------------------------|

Hope that helps some people im pretty sure about it all apart from the last ending bit. 
fun !!!!
any questions - beninyemen@hotmail.com
Comments