Senses Fail - Lady In A Blue Dress Chords & Tabs

 

Lady In A Blue Dress Chords & Tabs

Senses Fail Chords & Tabs

Version: 3 Type: Tab 0 ratings
1 star 2 stars 3 stars 4 stars 5 stars
comments

Lady In A Blue Dress Tab

hey. the tabs for this song, are alright but heres my version. great album, great song hope you enjoy!


                               GUITAR 1


intro with, delay, and an echo plex

e--------------------------------------------------------------------|
b-10-10-10-10---------7-7-7-7-7-7------------------------------------|
g----------------9---7-7-7-7-7-7-------------------------------------|
d-9-9-9-9-9-9---0-0--5-5-5-5-5-5-------------------------------------|
a--------------------------------------------------------------------|
e--------------------------------------------------------------------|


 Intro 2- heavily distorted
e---------------------------------------------------------------------------|
b---------------------------------------------------------------------------|
g-14-------9-----11---------------------------------------------------------|
d--x--x8---x-----x----------------------------------------------------------|
a-12-------7-----9----------------------------------------------------------|
e---------------------------------------------------------------------------|

Verse- Clean sound, with an on beat rythmn pattern
e---------------------------------------------------------------------------|
b---------------------------------------------------------------------------|
g-14-------9-----11---------------------------------------------------------|
d--x--x8---x-----x----------------------------------------------------------|
a-12-------7-----9----------------------------------------------------------|
e---------------------------------------------------------------------------|
[ Tab from: http://www.guitartabs.cc/tabs/s/senses_fail/lady_in_a_blue_dress_tab_ver_3.html ]
Chorus- Clean, chorus effect. Keep on repeating the picking, till verse 2
e----------------------------------------------------------------------------|
b--------10----------10------------------------------------------------------|
g-----11----11----11----11---------------------------------------------------|
d--12----------12----------12------------------------------------------------|
a----------------------------------------------------------------------------|
e----------------------------------------------------------------------------|


                          GUITAR 2-drop d tuning
Intro 2- come in after guitar intro, heavily distorted
e---------------------------------------------------------------------------|
b---------------------------------------------------------------------------|
g---------------------------------------------------------------------------|
d-9-------0------5----------------------------------------------------------|
a-9-(x6)--0-(x4)-5-(x6------------------------------------------------------|
d-9-------0------5----------------------------------------------------------|
Verse- On beat clean sound
e----------------------------------------------------------|
b----------------------------------------------------------|
g----------------------------------------------------------|
d-9-------7-----5------------------------------------------|
a-9-(x6)--7-(x1)5-(x6)-------------------------------------|
e-9-------7-----5------------------------------------------|

Chorus

e-------------------------------------------------------------|
b-------------------------------------------------------------|
g-------------------------------------------------------------|
d-0------7-----9------5---------------------------------------|
a-0-(x8)-7-(x8)9-(x8)-5-(x8)----------------------------------|
e-0------7-----9------5---------------------------------------|

Bridge

e---------------------------------------------------------------|
b---------------------------------------------------------------|
g---------------------------------------------------------------|
d-9-9-9-9-9-9--7---5-5-5-5-5-5----------------------------------|
a-9-9-9-9-9-9--7---5-5-5-5-5-5----------------------------------|
e-9-9-9-9-9-9--7---5-5-5-5-5-5----------------------------------|


there it is. guitar 1 bridge is easy, sorry i forgot it. im only 13 so give me some 
please rate thankz
Comments