Senses Fail - Lady In A Blue Dress Chords & Tabs

 

Lady In A Blue Dress Chords & Tabs

Senses Fail Chords & Tabs

Version: 2 Type: Bass Tab 0 ratings
1 star 2 stars 3 stars 4 stars 5 stars
comments

Lady In A Blue Dress Bass Tab

   
Senses Fail
Lady In A Blue Dress
Let It Enfold You

Tuning: Drop D
email: pleaze_shut_up@yahoo.com

hah, i dont even play bass...well it sounds right to me and i put every detail i could
in. great song, great band.


Intro 1 or you could reverse it if you have the reverse effect
G|-----------------------------------------|
D|-----------------------------------------|
A|-----------------------------------------|
D|9~----12~--5~----12~--9~----12~--5~------|


Intro 2 x2
G|-----------------------------------------|
D|-----------------------------------------|
A|-----------------------------------------|
D|9999999999-00-5555555555-0-4h5p4---------|


Verse (Just like the lady in a blue dress...)
G|-----------------------------------------|
D|-----------------------------------------|
A|-----------------------------------------| x2
D|9-9-9-9-9-9-9-4445-5-5-5-5-5-4h5p4h5-----|

G|-----------------------------------------|
D|-----------------0-----------------------|
A|------------10p9-------------------------|
D|9-9-9-9-9-9--------5-5-5-5-5-5-4h5p4h5---|

G|-----------------------------------------|
D|-----------------0-----------------------|
A|------------10p9-------------------------|
D|9-9-9-9-9-9--------5-5-5-5-5-5-5h7-------|


Chorus (You say that you want respect...)
G|-----------------------------------------------------------|
D|-----------------------------------------------------------|
A|-----------------------------------------------------------|
D|000000000000-777777777777-999999999999-555555555555-0-4h5p4|
[ Tab from: http://www.guitartabs.cc/tabs/s/senses_fail/lady_in_a_blue_dress_btab_ver_2.html ]
G|-----------------------------------------------------------|
D|-----------------------------------------------------------|
A|-----------------------------------------------------------|
D|000000000000-777777777777-999999999999-55555555555555555555|


Verse 2 (So you say that i am rated X...)
G|-----------------------------------------|
D|-----------------------------------------|
A|-----------------------------------------|
D|9-9-9-9-9-9-9-4445-5-5-5-5-5-4h5p4h5-----|

G|-----------------------------------------|
D|-----------------------------------------|
A|-----------------------------------------|
D|9-9-9-9-9-9-9-4445-5-5-5-5-5-4567--------|

G|-----------------------------------------|
D|-----------------0-----------------------|
A|------------10p9-------------------------|
D|9-9-9-9-9-9--------5-5-5-5-5-5-4h5p4h5---|

G|-----------------------------------------|
D|-----------------0-----------------------|
A|------------10p9-------------------------|
D|9-9-9-9-9-9--------5-5-5-5-5-5-5h7-------|


[Chorus]


Bridge (Dont try to be cute with me...)
G|-----------------------------------------|
D|-----------------------------------------|
A|-----------------------------------------| x4
D|99999999999-4--555555555555--------------|



(Just like the lady in a blue dress...)
G|-----------------------------------------|
D|-----------------0-----------------------|
A|------------10p9-------------------------|
D|9-9-9-9-9-9--------5-5-5-5-5-5-4h5p4h5---|

G|------------------------------|
D|-----------------0------------|
A|------------10p9--------------|
D|9-9-9-9-9-9--------5-5-5-5-5-5|


pause


[Chorus]


Outro
G|-----------------------------------------|
D|-----------------------------------------|
A|-----------------------------------------|
D|555555555555555555555555-7777-0~---------|
Comments