Senses Fail - Institutionalized Chords & Tabs

 

Institutionalized Chords & Tabs

Senses Fail Chords & Tabs

Version: 2 Type: Tab

Institutionalized Tab

Band: Senses Fail
Song: Institutionalized (originally preformed by Suicidal Tendancies)
Album: Let It Enfold You (SE)
Tabber: Senses X Fail or my email blforsythe@zoominternet.net
please send any comments questions or corrections




Intro/Verse: Mess around with this it slowly starts 
going faster towards the end of the verse.
E|---------------------|
B|---------------------|
G|---------------------|
D|---------------------|
A|--9-9-9--10-10-10----|
E|--7-7-7--8--8--8-----|

After you play that four times you play this once:

E|------------------|
B|------------------|
G|------------------|
D|------------------|
A|--9-10-12---------|
E|-----------8~-----|

Play this all about 25-30 
times just follow the lyrics 
and listen for the progression.


Pre Chorus:
E|---------------------|
B|---------------------|
G|---------------------|
D|--9999-10101010------|x4
A|--9999-10101010------|
E|--7777-8-8-8-8-------|

Chorus:

I'M NOT CRAZY!.....
E|------------|
B|------------|
G|------------|
D|------------|
A|--44444444--|
E|--22222222--|

INSTITUTION!....
E|--------------------|
B|--------------------|
G|--------------------|
D|--------------------|
A|--7777-6666---------|x3
E|--5555-4444---------|
[ Tab from: http://www.guitartabs.cc/tabs/s/senses_fail/institutionalized_tab_ver_2.html ]
They stick me in an institution....
E|---------------------|
B|---------------------|
G|---------------------|
D|--9999-10101010------|x4
A|--9999-10101010------|
E|--7777-8-8-8-8-------|

Verse: Mess around with this it slowly starts 
going faster towards the end of the verse.

E|---------------------|
B|---------------------|
G|---------------------|
D|---------------------|
A|--9-9-9--10-10-10----|
E|--7-7-7--8--8--8-----|


Pre Chorus:
E|---------------------|
B|---------------------|
G|---------------------|
D|--9999-10101010------|x4
A|--9999-10101010------|
E|--7777-8-8-8-8-------|

Chorus:

I'M NOT CRAZY!.....
E|------------|
B|------------|
G|------------|
D|------------|
A|--44444444--|
E|--22222222--|

INSTITUTION!....
E|--------------------|
B|--------------------|
G|--------------------|
D|--------------------|
A|--7777-6666---------|x3
E|--5555-4444---------|

They stick me in an institution....
E|---------------------|
B|---------------------|
G|---------------------|
D|--9999-10101010------|x4
A|--9999-10101010------|
E|--7777-8-8-8-8-------|

The second guitar im pretty sure is mostly messing around but i 
wasnt able to tab it all. This song can be played on drop D if 
you know how to convert chords on here to dropped D and like 
that sound better then do it its a little easier. Otherwise 
heres the first guitar this is a easy song considering a 
punk rock band created it and Senses Fail covered it.

=====================================================================