Senses Fail - From The Depths Of Dreams Chords & Tabs

 

From The Depths Of Dreams Chords & Tabs

Senses Fail Chords & Tabs

Version: 1 Type: Tab 0 ratings
1 star 2 stars 3 stars 4 stars 5 stars
comments

From The Depths Of Dreams Tab

   
SENSES FAIL
FROM THE DEPTHS OF DREAMS
J DIZZLE
NOTE: This is the ultimate compilation from tabs from ALL OVER the net.
I just collected them.

Tracks
1.Stephen
2.Free Fall Without A Parachute
3.Bloody Romance
4.Dreaming A Reality
5.The Ground Folds
6.One Eight Seven
7.Hand Guns And Second Chances
8.The Ground Folds Acoustic

ALL OF WHICH IS IN DROP D TUNING.
*****************************************************************************
STEPHEN
*****************************************************************************
Intro:
---------------------------|
---------------------------|
---------------------------|
---10----------------------|
-----7---------------------|
-7-------------------------|

(Goodbye!)
---------------------------------|
---------------------------------|
---------------------------------|
-7777--55--3333------------------|
-7777--55--3333------------------|
-7777--55--3333------------------|

Verse:
--------------------|
---8--------6-------|
--9---7----5--------|
-7---5----3---------|
--------------------|
--------------------|

Part Before Chorus:
-------------------------------------|
-------------------------------------|
-------------------------------------|
-00----22--33------------------------|
-00----22--33------------------------|
-00----22--33------------------------|

------------------------------|
------------------------------|
------------------------------|
-00-33----77--5--33-----------|
-00-33----77--5--33-----------|
-00-33----77--5--33-----------|

Part before new Verse:
------------------------|
------------------------|
---5--------------------|
--5--5------------------|
-3----------------------|
------------------------|

verse 2:
pm:::::::::::
-------------------------|
-------------------------|
--77--5---33-------------|
--77--5---33-------------|
--77--5---33-------------|
--77--5---33-------------|

He so so young!
-------------------------|
-------------------------|
--77--5---33-------------|
--77--5---33-------------|
--77--5---33-------------|
--77--5---33-------------|

*****************************************************************************
FREE FALL WITHOUT A PARACHUTE
*****************************************************************************

e:---------------------------------------------------------------------|
B:-------6---5-6---6-----6---5-6---6-----6---5-6---6-----6---5-6---6---|
G:---------5-----5---------5-----5---------5-----5---------5-----5-----|
D:--0--0---------------0---------------0---------------0---------------|
A:---------------------------------------------------------------------|
D:---------------------------------------------------------------------|
pm ....................................................................
Guitar 1
e:---------------------------------------|
B:---------------------------------------|
G:---------------------------------------|
D:--0-0-0-0-0-0-0-0-0-0-0-0-0-0-0-7-8-8~-|
A:--0-0-0-0-0-0-0-0-0-0-0-0-0-0-0-7-8-8~-|
D:--0-0-0-0-0-0-0-0-0-0-0-0-0-0-0-7-8-8~-|
Guitar 2
e:---------------------------------------|
B:---------------------------------------|
G:-101010101010101012121210-9-9-9-7-8-8~-|
D:--x-x-x-x-x-x-x-x-x-x-x-x-x-x-x-7-8-8~-|
A:--8-8-8-8-8-8-8-8101010-8-7-7-7-7-8-8~-|
D:---------------------------------------|

Guitars 1 & 2
e:---------------------------------------------------------------------------|
B:---------------------------------------------------------------------------|
G:---------------------------------------------------------------------------|
D:-0--0-0-0-0-0-0-000-0--0-0-0-0-0-0-000-7/8-8-8-8-8-8-8-888-7/8-8-8-8-8-8-8-|
A:-0--0-0-0-0-0-0-000-0--0-0-0-0-0-0-000-7/8-8-8-8-8-8-8-888-7/8-8-8-8-8-8-8-|
D:-0--0-0-0-0-0-0-000-0--0-0-0-0-0-0-000-7/8-8-8-8-8-8-8-888-7/8-8-8-8-8-8-8-|

Guitar 1
e:-----------------------------------------|
B:-----------------------------------------|
G:-----------------------------------------|
D:--0-0-0-0-0-0-0-0-0-0-0-0-0-0-0-7/8-xx8~-|
A:--0-0-0-0-0-0-0-0-0-0-0-0-0-0-0-7/8-xx8~-|
D:--0-0-0-0-0-0-0-0-0-0-0-0-0-0-0-7/8-xx8~-|
Guitar 2
e:-----------------------------------------|
B:-----------------------------------------|
G:-101010101010101012121210-9-9-9-7/8-xx8~-|
D:--x-x-x-x-x-x-x-x-x-x-x-x-x-x-x-7/8-xx8~-|
A:--8-8-8-8-8-8-8-8101010-8-7-7-7-7/8-xx8~-|
D:-----------------------------------------|

Guitars 1 & 2
e:------------------------------------------------------------------|
B:------------------------------------------------------------------|
G:------------------------------------------------------------------|
D:-3333333333333333000000000000000088888888888888883333333322222222-|
A:-3333333333333333000000000000000088888888888888883333333333333333-|
D:-3333333333333333000000000000000088888888888888883333333322222222-|

Guitar 1
e:------------------------------------------------------------------|
B:------------------------------------------------------------------|
G:------------------------------------------------------------------|
D:-3~--------------0~--------------8~--------------3~---------------|
A:-3~--------------0~--------------8~--------------3~---------------|
D:-3~--------------0~--------------8~--------------3~---------------|

Guitar 2
e:-8---6-5----------|
B:----------8---6-5-|
G:------------------|
D:------------------|
A:------------------|
D:------------------|
pm..................

Guitar 2
e:--------------------------------------------------|
B:--------------------------------------------------|
G:--9-9-9-9-9-9-9-9-9-9-9-9-9-9-9-91010101012121212-|
D:--x-x-x-x-x-x-x-x-x-x-x-x-x-x-x-x-x-x-x-x-x-x-x-x-|
A:--7-7-7-7-7-7-7-7-7-7-7-7-7-7-7-7-8-8-8-810101010-|
D:--------------------------------------------------|

*****************************************************************************
BLOODY ROMANCE
*****************************************************************************

Intro 1: Guitar 1 (play this whole part x3)
e|-------------------------------------------------|
B|-10-10-10-10-10-10-10-10--8--8--8--8-11-11-11-11-|
G|-10-10-10-10-10-10-10-10-10-10-10-10-10-10-10-10-|x3
D|-------------------------------------------------|
A|-------------------------------------------------|
D|-------------------------------------------------|
pm .. .. .. .. .. .. .. .. .. .. .. .. .. .. .. ..

e|----------------------------------------------------|
B|-10-10-10-10-10-10-10-10--8--8--8--8--8--8--8--8----|
G|-10-10-10-10-10-10-10-10-10-10-10-10-10-10-10-10----|
D|----------------------------------------------------|
A|----------------------------------------------------|
D|----------------------------------------------------|
pm .. .. .. .. .. .. .. .. .. .. .. .. .. .. .. ..


Intro 1: Guitar 2 (x2)                      Guitar 3
e|----(comes in after Guitar 1 x1)-----|----(comes in after Guitar 1 x2)---|
B|-------------------------------------|-----------------------------------|
G|-------------------------------------|---------3-3-----5-5---------5--5--|
D|-77777777-33333333-5555555555555555--|-0-0-----3-3-----5-5---------5--5--|
A|-55555555-11111111-3333333333333333--|-0-0-----1-1-----3-3---------3--3--|
D|-------------------------------------|-0-0-------------------------------|
Pm ........ ........ ................

Intro 2: Guitar 1 (distortion) (play this whole part x2)
e|--------------------------------------------------------|--------------|
B|--10-10-10-10-10-10-10-10--8--8--8--8-11-11-11-11-------|--10-10-10-8--|
G|--10-10-10-10-10-10-10-10-10-10-10-10-10-10-10-10-(x3)--|--10-10-10-10-|
D|--------------------------------------------------------|--------------|
A|--------------------------------------------------------|--------------|
D|--------------------------------------------------------|--------------|


Intro 2: Guitar 2 (distortion)
e|-----------------------------------------------------------|
B|-----------------------------------------------------------|
G|---------------3--3--3-3~--3--5--5--5-5~--5----5--5--5-5~--|x2
D|0--0--0-0~--0--3--3--3-3~--3--5--5--5-5~--5----5--5--5-5~--|
A|0--0--0-0~--0--1--1--1-1~--1--3--3--3-3~--3----3--3--3-3~--|
D|0--0--0-0~--0----------------------------------------------|

Verse:
e|------------------------------------------------|
B|------------------------------------------------|
G|------------------------------------------------|x2
D|-----------------------3333-3333--3333-3333--5~-|
A|-0000-0000--0000-0000--1111-1111--1111-1111--3~-|
D|-0000-0000--0000-0000---------------------------|
pm .... ....  .... ....  .... ....  .... ....


Pre-Chorus: Guitar 1 (played x1 during 2nd part of Pre-Chorus Guitar 2)
e|-------------------------------------------------------|------------|
B|-10-10-10-10-10-10-10-10--8--8--8--8-11-11-11-11-------|-10-10-10-8-|
G|-10-10-10-10-10-10-10-10-10-10-10-10-10-10-10-10-(x3)--|-10-10-10-10|
D|-------------------------------------------------------|------------|
A|-------------------------------------------------------|------------|
D|-------------------------------------------------------|------------|

Pre-Chorus: Guitar 2
e|--------------------------------------------------------------------|
B|--------------------------------------------------------------------|
G|-----------------3333333333333333-5555555555555555555555555555555---|
D|0000000000000000-3333333333333333-5555555555555555555555555555555---|
A|0000000000000000-1111111111111111-3333333333333333333333333333333---|
D|0000000000000000----------------------------------------------------|

e|(------------------guitar-1-played-here-------------------------)|
B|-----------------------------------------------------------------|
G|-----------------3333333333333333-5555555555555555--5--5--5--5~--|
D|0000000000000000-3333333333333333-5555555555555555--5--5--5--5~--|
A|0000000000000000-1111111111111111-3333333333333333--3--3--3--3~--|
D|0000000000000000-------------------------------------------------|


Chorus: Guitar 1
e|---------------------------------------------------------------|
B|---------------------------------------------------------------|
G|--10---------12--------14--------10---------9--------10--------|
D|---x-(x16)----x-(x8)----x-(x8)----x-(x16)---x-(x8)----x-(x8)---|
A|---8---------10--------12---------8---------7---------8--------|
D|---------------------------------------------------------------|

E ---------------------------------------------------------------|
B ---------------------------------------------------------------|
G --14---------12--------10--------17--------15--------14--------|x2
D ---x-(x16)----x-(x8)----x-(x8)----x-(x8)----x-(x8)----x-(x16)--|
A --12---------10---------8--------15--------13--------12--------|
D ---------------------------------------------------------------|

Chorus: Guitar 2
e|----------------------------------------------------------------------|
B|----------------------------------------------------------------------|
G|-----------------3333333333333333------------------3333333333333333---|x2
D|0000000000000000-3333333333333333-3333333333333333-3333333333333333---|
A|0000000000000000-1111111111111111-3333333333333333-1111111111111111---|
D|0000000000000000------------------3333333333333333--------------------|


REPEAT VERSE:

REPEAT PRE-CHORUS:

REPEAT CHORUS:

Interlude: Guitar 1 (play whole thing x3)
e|--------------------------------------|
B|-----13-13----13-13----10-10----10-10-|
G|--10-10-10-10-10-10-10-10-10-10-10-10-|x3
D|--------------------------------------|
A|--------------------------------------|
D|--------------------------------------|

e|--------------------------------------|
B|-----13-13----13-13----11-11----11-11-|
G|--10-10-10-10-10-10-10-10-10-10-10-10-|
D|--------------------------------------|
A|--------------------------------------|
D|--------------------------------------|

Interlude cont: Guitar 1 (play whole thing x2)
e|--------------------------------------|
B|-----13-13----13-13----10-10----10-10-|
G|--10-10-10-10-10-10-10-10-10-10-10-10-|x3
D|--------------------------------------|
A|--------------------------------------|
D|--------------------------------------|

e|--------------------------------------|
B|-----13-13----13-13----11-11----11-11-|
G|--10-10-10-10-10-10-10-10-10-10-10-10-|
D|--------------------------------------|
A|--------------------------------------|
D|--------------------------------------|

Interlude cont: Guitar 2
e|--------------------------|
B|--------------------------|
G|--------3~----------------|x2
D|--0~----3~----3~----3~----|
A|--0~----1~----3~----3~----|
D|--0~----------3~----2~----|

e|------------------------------------------------------------------------|
B|------------------------------------------------------------------------|
G|------------------------------------------------------------------------|x3
D|-------------------3333333333333333-------------------------------------|
A|--0000000000000000-1111111111111111-3333333333333333-3333333333333333---|
D|--0000000000000000------------------3333333333333333-2222222222222222---|
pm  ................ ................ ................ ................


Outro: Guitar 1(plays chords) Guitar 2(plays octaves)
e|---------------------------------------------------------|
B|---------------------------------------------------------|
G|----------10------------10------------12-------------9---|x2
D|--00-00----x----88-88----x----33-33----x----22-22----x---|
A|--00-00----8----88-88----8----33-33---10----22-22----7---|
D|--00-00---------88-88---------33-33---------22-22--------|

Outro cont: Guitar 1(plays chords) Guitar 2(plays octaves)
e|---------------------------------------------------------|
B|---------------------------------------------------------|
G|----------10------------10------------12-------------9---|x2
D|--00-00----x----88-88----x----33-33----x----22-22----x---|
A|--00-00----8----88-88----8----33-33---10----22-22----7---|
D|--00-00---------88-88---------33-33---------22-22--------|


Outro cont: Guitar 3
e|---------------------------------------------------------|
B|---------------------------------------------------------|
G|-1010-1010-----99-1010--12--1414-1414-----1212-1515-14---|x2
D|--x-x--x-x-----xx-x-x----x---x-x--x-x------x-x--x-x--x---|
A|--8-8--8-8-----77-8-8---10--1212-1212-----1010-1313-12---|
D|---------------------------------------------------------|

End on:
Guitar 1
e|---------|
B|---------|
G|---------|
D|----0~---|
A|----0~---|
D|----0~---|

Guitar 2
e|---------|
B|---------|
G|---------|
D|---10~---|
A|----x----|
D|----8~---|

*****************************************************************************
DREAMING A REALITY
*****************************************************************************


e|--------------------------------------------------------------------|
B|--------------------------------------------------------------------|
G|--------------------------------------------------------------------|
D|------7-----6-------------------------7-----6-------------------6---|
A|----4-----4-----4-7-----7-----7-----4-----4-----4-7-----7-----7-----|
E|--4-----4-----4-----4-4---4-4---4-4-----4-----4-----4-4---4-4-----4-|

e|--------------------------------------------------------------------|
B|--------------------------------------------------------------------|
G|--------------------------------------------------------------------|
D|------7-----6-------------------------7-----6-----------------------|
A|----0-----0-----0-7----7-----7------0-----0-----0-7-----7-----7-----|
E|--0-----0-----0----0-0---0-0---0--0-----0-----0-----0-0---0-0---0---|
After You Play this go to the top and play again

Guitar 2 Intro
e|--------------------------------------|
B|--------------------------------------|
G|--------------------------------------|
D|---4-4------4-4------0-0------0-0-----|
A|---4-4------4-4------0-0------0-0-----|
E|---4-4------4-4------0-0------0-0-----|
  PM....     PM....   PM....  PM....
 Play this 2nd intro. Find out when to play it. It's simple...

Guitar 2
e|-------------------------------------|
B|-------------------------------------|
G|-------------------------------------|
D|--4---------------------0------------|
A|--4---------------------0------------|
E|--4---------------------0------------|


  Folks, with guitar one, I just turn my distortion on and play the intro again.

Guitar 1 Verse   AWESOME PART  Play twice
e|--------------------------------------|
B|--------------------------------------|
G|--------------------------------------|
D|--7--6-----7--6-----7--6--2--7--6--2--|
A|--4--4--7--4--4--7--0--0--0--0--0--0--|
E|--4--4--4--4--4--4--0--0--0--0--0--0--|

Guitar 2 Verse
e|-----------------------|
B|-----------------------|<
G|-----------------------|    Play Twice
D|--4-----------------0--|<
A|--4-----------------0--|
E|--4-----------------0--|
[ Tab from: http://www.guitartabs.cc/tabs/s/senses_fail/from_the_depths_of_dreams_tab.html ]
e|-------------------------------------|
B|-------------------------------------|
G|-------------------------------------|
D|--4---------------------0------------|Play twice
A|--4---------------------0------------|
E|--4---------------------0------------|
  PM.................................

e|----------------------------------------------------|
B|----------------------------------------------------|
G|----------------------------------------------------|
D|--4-4-x-x-x-4-4-4-x-x-x-x-4-4-x-x-x-4-4-4-4-4-4-4---|
A|--4-4-x-x-x-4-4-4-x-x-x-x-4-4-x-x-x-4-4-4-4-4-4-4---|
E|--4-4-x-x-x-4-4-4-x-x-x-x-4-4-x-x-x-4-4-4-4-4-4-4---|

e|----------------------------------------------------|
B|----------------------------------------------------|
G|----------------------------------------------------|
D|--0-0-x-x-x-0-0-0-x-x-x-x-0-0-x-x-x-0-0-0-0-0-0-0---|
A|--0-0-x-x-x-0-0-0-x-x-x-x-0-0-x-x-x-0-0-0-0-0-0-0---|
E|--0-0-x-x-x-0-0-0-x-x-x-x-0-0-x-x-x-0-0-0-0-0-0-0---|

e|---------------|
B|---------------|
G|---------------|Guitar 2
D|----6h7h6------|
A|---------7-----|
E|---------------|

e|---------------|
B|---9h14h9------|
G|---------9-----|Guitar 1
D|---------------|
A|---------------|
E|---------------|

Chorus Again, Figure the strumming. It's simple..
   Play 2X
e|------------------------------------------------------|
B|------------------------------------------------------|
G|--9-------------7-9-7-------------4----6--7-4---6-----|
D|--x-------------x-x-x-7-----------x----x--x-x---x--7--|
A|--7-------------5-7-5-7-----------2----4--5-2---4--7--|
E|----------------------7----------------------------7--|

Go back and play Verse One once and just play the rest of it.
Then at the end of the chorus it goes like this...

e|-----------------|
B|-----------------|
G|--------7--------|
D|---7~-----7-6----|
A|---7~------------|
E|---7~------------|

After that play the chorus and then go with this..

e|--------------------|
B|--------------------|
G|---------9-7-6------|
D|--7~----------------|
A|--7~----------------|
E|--7~----------------|

Finally, with this part listen for the strumming.
It goes back in forth between palm muting and not.
e|---------------------------------------|
B|---------------------------------------|
G|---------------------------------------|
D|--7-----0------4----0------------------|
A|--7-----0------4----0------------------|
E|--7-----0------4----0------------------|

*****************************************************************************
THE GROUND FOLDS
*****************************************************************************

Intro x 2
e--------------10------------------------10-----|
B-------11-----------------11------11-----------|
G-12-12----12-----12-12-12----12-12---12--12-12-|
D-----------------------------------------------|
A-----------------------------------------------|
D-----------------------------------------------|

e--------------13------------------------13-----|
B-------11-----------------11------11-----------|
G-10-10----10-----10-10-10----10-10---10--10-10-|
D-----------------------------------------------|
A-----------------------------------------------|
D-----------------------------------------------|

2nd Intro x2

e-----------------------------------------------|
B-----------------------------------------------|
G-----------------------------------------------|
D-5-5-5-5-5-5-5--5-5-5-5-5-5-5------------------|
A-5-5-5-5-5-5-5--5-5-5-5-5-5-5------------------|
D-5-5-5-5-5-5-5--5-5-5-5-5-5-5------------------|

e--------------13------------------------13-----|
B-------11-----------------11------11-----------|
G-10-10----10-----10-10-10----10-10---10--10-10-|
D-----------------------------------------------|
A-----------------------------------------------|
D-----------------------------------------------|

Main Riffx2-Open
e-----------------------------------------------|
B-----------------------------------------------|
G-----------------------------------------------|
D-5555555--5555555--111111--1111111-------------|
A-5555555--5555555--111111--1111111-------------|
D-5555555--5555555--111111--1111111-------------|

Versex2-Palm Muted
e-----------------------------------------------|
B-----------------------------------------------|
G-----------------------------------------------|
D-75555555555555--3111111111111-----------------|
A-55555555555555--1111111111111-----------------|
D-55555555555555--1111111111111-----------------|

Pre Chorus x2-Open
e-----------------------------------------------|
B-----------------------------------------------|
G-----------------------------------------------|
D-77777777777777--3333333333333-----------------|
A-55555555555555--1111111111111-----------------|
D-55555555555555--1111111111111-----------------|

Pre Chorus cont. x2

e-----------------------------------------------|
B-----------------------------------------------|
G-----------------------------------------------|
D-0000000-1111111-------------------------------|
A-0000000-1111111-------------------------------|
D-0000000-1111111-------------------------------|

Chorus x2
e-----------------------------------------------|
B-----------------------------------------------|
G-----------------------------------------------|
D--5555555555-888888888-1111111111-00000-11111--|
A--5555555555-888888888-1111111111-00000-11111--|
D--5555555555-888888888-1111111111-00000-11111--|
"This song I wrote....."	  (PM.........)

Verse x2

Pre Chorus x2

Pre Chorus cont. x2

End of Chorus
e------------------------------------------------|
B------------------------------------------------|
G------------------------------------------------|
D-11111111111------------------------------------|
A-11111111111------------------------------------|
D-11111111111------------------------------------|
 (PM and gradually release)

Interlude x3
e-----------------------------------------------|
B-----------------------------------------------|
G-----------------------------------------------|
D--8888888888-111111111-5555555555-11111111111--|
A--8888888888-111111111-5555555555-11111111111--|
D--8888888888-111111111-5555555555-11111111111--|

Interlude 2 x2
e-----------------------------------------------|
B-----------------------------------------------|
G-----------------------------------------------|
D--88x88x88x8-11x11x11x1-55x55x55x5-11x11x11x1--|
A--88x88x88x8-11x11x11x1-55x55x55x5-11x11x11x1--|
D--88x88x88x8-11x11x11x1-55x55x55x5-11x11x11x1--|

Chorus x2

End on
e-----------------------------------------------|
B-----------------------------------------------|
G-----------------------------------------------|
D-5~--------------------------------------------|
A-5~--------------------------------------------|
D-5~--------------------------------------------|

*****************************************************************************
ONE EIGHT SEVEN
*****************************************************************************

Intro
Guitar 1

e:---------0----------------0----------------0---------------0-------|
B:-----3-----3---3------3-----3----------3-----3---3-----3-----3---3-|
G:-2-2---2-----2----4-4---4-----2h4--0-0---0-----0---0-0---0-----0---|
D:-------------------------------------------------------------------|
A:-------------------------------------------------------------------|
D:-------------------------------------------------------------------|

Guitar 2

e:-12---12---12---12----10--10--10--10----9---9---9---9---9---9---9---|
B:---10---10---10---10----10--10--10--10---10--10--10--10--10--10--10-|
G:--------------------------------------------------------------------|
D:--------------------------------------------------------------------|
A:--------------------------------------------------------------------|
D:--------------------------------------------------------------------|

Verse

Both Guitars

(Shot Through My Heart...)

e:------------------------------------------------------------------|
B:------------------------------------------------------------------|
G:------------------------------------------------------------------|
D:-0-0-0-0-0-0-0--9-9-9-9-9-9-9--7-9-5-5-5-5-5-5-5--5-5-5-5-5-5-----|
A:-0-0-0-0-0-0-0--9-9-9-9-9-9-9--7-9-5-5-5-5-5-5-5--5-5-5-5-5-5-----|
D:-0-0-0-0-0-0-0--9-9-9-9-9-9-9--7-9-5-5-5-5-5-5-5--5-5-5-5-5-5-----|
     .............................................  ...   ...

Chorus

e:------------------------------------------------------------------|
B:------------------------------------------------------------------|
G:------------------------------------------------------------------|
D:-9-9-9-9-9-9-9--5-5-5-5-5-5-5--0-0-0-0-0-0-0--7-7-7-7-7-7-7-------|
A:-9-9-9-9-9-9-9--5-5-5-5-5-5-5--0-0-0-0-0-0-0--7-7-7-7-7-7-7-------|
D:-9-9-9-9-9-9-9--5-5-5-5-5-5-5--0-0-0-0-0-0-0--7-7-7-7-7-7-7-------|

Go back to the first guitar intro then play the Verse part again and go to Chorus

After they scream "Knowing you'll never see the light of day" for the last time
plam mute the 7-7-7 Chord then just repeat the Chorus with a pause in the middle.

Ending

e:-------------------------------------------------------------------|
B:-------------------------------------------------------------------|
G:-------------------------------------------------------------------|
D:-9~--9-9-9-9~------------------------------------------------------|
A:-9~--9-9-9-9~------------------------------------------------------|
D:-9~--9-9-9-9~------------------------------------------------------|
       .....

*****************************************************************************
HAND GUNS AND SECOND CHANCES
*****************************************************************************

Guitar 1's Parts
----------------
Intro:                  (4x)
e|-----------------------|-----------------------------------------|
B|9----9----9----9--9-9x-|9-9-9-9-9x-9-9-9-9-9x-9-9-9x-9-9-9-9-----|9x
G|8----8----8----8--8-8x-|8-8-8-8-8x-8-8-8-8-8x-8-8-8x-8-8-8-8-8x--|
D|6----6----6----6--6-6x-|6-6-6-6-6x-6-6-6-6-6x-6-6-6x-6-6-6-6-6x--|
A|-----------------------|-----------------------------------------|
D|-----------------------|-----------------------------------------|

Intro cont.
e|------------------|
B|9-9-9-9-9x-9-9-9--|
G|8-8-8-8-8x-8-8-8--|
D|6-6-6-6-6x-6-6-6--|
A|------------------|
D|------------------|
             . .

Verse: "To kill..." (come in on 3rd time) (2x)
e|-----------------------------|
B|9-9----9-9-9-9---------------|
G|8-8----8-8-8-8---------------|
D|6-6----6-6-6-6--6-6-6-3-3-3--|
A|----------------6-6-6-3-3-3--|
D|----------------6-6-6-3-3-3--|
         . .      . .   . .

Chorus: "And now, I know..." (2x)
e|----------------------------------p----------------------------------|
B|9-----9-----11---9-----9-----11---a9-----9-----11-----11------9h11p9-|
G|--8-----8------8---8-----8------8-u--8-----8------8------8-----------|
D|----6-----6----------6-----6------s----6-----6------6-------6--------|
A|----------------------------------e----------------------------------|
D|---------------------------------------------------------------------|

verse(pick slide on 2nd time)
chorus

Bridge: "And I'm, too scared..." (come in on 2nd time)
                                              (2x)
e|--------------------------------------------|--------------------|
B|-------------------------11-----11-----11---|9-9x-9-9x-9-9x-9-9x-|
G|8-6-5---8-6-5-----8-6-5------8------8-----8-|x-x--x-x--x-x--x-x--|
D|------6-------6/8-------6------6------6-----|6-6x-6-6x-6-6x-6-6x-|
A|--------------------------------------------|--------------------|
D|--------------------------------------------|--------------------|

Bridge cont.
e|------------------------------------------------------------|
B|8-8-8-8-8-9-9x-9-9x-9-9x-9-9x-8-8-8-8-8-9-9x-9-9x-9-9x-9-9x-|
G|x-x-x-x-x-x-x--x-x--x-x--x-x--x-x-x-x-x-x-x--x-x--x-x--x-x--|
D|5-5-5-5-5-6-6x-6-6x-6-6x-6-6x-5-5-5-5-5-6-6x-6-6x-6-6x-6-6x-|
A|------------------------------------------------------------|
D|------------------------------------------------------------|

Bridge cont.
e|-----------------------------------------|
B|8-8-8-8-8/13-13-13-13-13-11-11-11-11-11--|
G|x-x-x-x-x--x--x--x--x--x--x--x--x--x--x--|
D|5-5-5-5-5/10-10-10-10-10--8--8--8--8--8--|
A|-----------------------------------------|
D|-----------------------------------------|

Interlude(same as 2nd part of bridge, just 1x though)
chorus

End on:
e|--------|
B|9-9-9x--|
G|x-x-x---
D|6-6-6x--|
A|--------|
D|--------|


Guitar 2's Parts
----------------
Intro:              (4x)
e|-----------------|-----------------------------------------|
B|-----------------|-----------------------------------------|
G|-----6---------6-|-----------------------------6-6-6-6-6x--|
D|3----6----3----6-|3-3-3-3-3x-3-3-3-3-3x-3-3-3x-6-6-6-6-6x--|
A|3----4----3----4-|3-3-3-3-3x-3-3-3-3-3x-3-3-3x-4-4-4-4-4x--|
D|3---------3------|3-3-3-3-3x-3-3-3-3-3x-3-3-3x-------------|

Intro cont.
e|------------------|
B|------------------|
G|6-6-6-6-6x-6-6-6--|
D|6-6-6-6-6x-6-6-6--|
A|4-4-4-4-4x-4-4-4--|
D|------------------|
             . .

Verse: "To kill..." (4x)
e|---------------------------|
B|---------------------------|
G|-------6-6-----------------|
D|3-3----6-6----6-6-1-1-3-3--|
A|3-3----4-4----6-6-1-1-3-3--|
D|3-3-----------6-6-1-1-3-3--|
  . .    . .    . . . . . .

Chorus: "And now, I know..." (2x)
e|--------------------p-----------------------|
B|--------------------a-----------------------|
G|--------------------u6-6-6-6-6--------------|
D|3-3-3-3-3-6-6-6-6-6-s6-6-6-6-6-6-6-6-1-1-1--|
A|3-3-3-3-3-6-6-6-6-6-e4-4-4-4-4-6-6-6-1-1-1--|
D|3-3-3-3-3-6-6-6-6-6------------6-6-6-1-1-1--|

verse
chorus

Bridge: "And I'm, too scared..."
 (2x)                 (2x)
e|--------------------|------------------------------------------|
B|--------------------|------------------------------------------|
G|----------6---------|------------------------------------------|
D|3----6----6----6-1--|3-3-3-3-3x-3-3x-3-3x-3-3-3-3-3-6-6-6-6-6x-|
A|3----6----4----6-1--|3-3-3-3-3x-3-3x-3-3x-3-3-3-3-3-6-6-6-6-6x-|
D|3----6---------6-1--|3-3-3-3-3x-3-3x-3-3x-3-3-3-3-3-6-6-6-6-6x-|

Bridge cont.
e|--------------------------------------------------------------|
B|--------------------------------------------------------------|
G|--------------------6-6-6-6-6x-6-6x-6-6x-6-6-6-6-6------------|
D|6-6x-6-6x-6-6-6-6-6-6-6-6-6-6x-6-6x-6-6x-6-6-6-6-6-6-6-6-6-6x-|
A|6-6x-6-6x-6-6-6-6-6-4-4-4-4-4x-4-4x-4-4x-4-4-4-4-4-6-6-6-6-6x-|
D|6-6x-6-6x-6-6-6-6-6--------------------------------6-6-6-6-6x-|

Bridge cont.
e|------------|
B|------------|
G|------------|
D|1-1-1-1-1x--|
A|1-1-1-1-1x--|
D|1-1-1-1-1x--|

chorus

End on:
e|--------|
B|--------|
G|--------|
D|3-3-3x--|
A|3-3-3x--|
D|3-3-3x--|

*****************************************************************************
THE GROUND FOLDS ACOUSTIC
*****************************************************************************

Intro guitar 1
e|-------------------|
B|-------------------|
G|--7---7--10--10----|
D|--5---8--8----7----|
A|--5---6--8----7----|
D|--5------8----7----|
guitar 2
e|--8p6---6---8p6---6---10~6-10-8-6-5---8p6---6---8p6---6---10~6-10-8-6-5-6~-|
B|------6---------6-------------------------6---------6----------------------|
G|---------------------------------------------------------------------------|
D|---------------------------------------------------------------------------|
A|---------------------------------------------------------------------------|
D|---------------------------------------------------------------------------|

Verse
e|----------------|
B|----------------|
G|--7--7---10-10--|
D|--5--8---8--8---|
A|--5--6---8--8---|
D|--5------8--8---|
guitar 2(figure the timing)
e|--10--8--6--|
B|--6---6--6--|
G|------------|
D|------------|
A|------------|
D|------------|

Pre Chorus
e|------------|
B|------------|
G|--7--5--3--5|
D|--5--3--1--3|
A|--5--3--1--3|
D|--5--3--1--3|
guitar 2 (again figure timing this is not hard)
e|--6-----6-----6---6-----6-----6---6-----6-----6---6-----10-----11----------|
B|----6-6---6-6---6---6-6---6-6---6---6-6---6-6---6---6-6----6-6----66-------|
G|---------------------------------------------------------------------------|
D|---------------------------------------------------------------------------|
A|---------------------------------------------------------------------------|
D|---------------------------------------------------------------------------|

Chorus
e|------------------|
B|------------------|
G|--10---7--7--5--3-|
D|--8----8--5--3--1-|
A|--8----6--5--3--1-|
D|--8-------5--3--1-|
                                    Piano Part
Verse x2
Pre Chorus x1                       G|--10---10-12--10---10---12-|
Chorus x2                           D|-8---8-----------8----8----|x2
Prechorus x2 into the bridge

Bridge
e|-------------|
B|-------------|
G|--10-3--7--3-|
D|--8--1--5--1-|
A|--8--1--5--1-|
E|--8--1--5--1-|
Fer the second guitar i think they just play the piano thing
pre chorusx2 then end on
e|---------|
B|---------|
G|----3----|
D|----1----|
A|----1----|
D|----1----|
Comments