Senses Fail - Free Fall Without A Parachute Chords & Tabs

 

Free Fall Without A Parachute Chords & Tabs

Senses Fail Chords & Tabs

Version: 1 Type: Bass Tab 0 ratings
1 star 2 stars 3 stars 4 stars 5 stars
comments

Free Fall Without A Parachute Bass Tab

well i saw senses fail live and figured out most of this by staying up late tabbing for
some reason. yea ok.. please rate
~giulio


INTRO-
begins with guitar and bass comes in when the drums do
|----------|
|----------|
|----------|
|----------|
|----------|
|--0-0-0-0-|
         .
|--------------------------------------------------------------|
|--------------------------------------------------------------|
|--------------------------------------------------------------|
|--------------------------------------------------------------|  
|--------------------------------------------------------------|
|-0-0-10/12---0-0-10/12---0-0-10/12---0-10/12---7-8-8~--7-8-8~-|
                                                  .       .



VERSE- 
|------------------------------------------------|
|------------------------------------------------|
|------------------------------------------------|
|------------------------------------------------|
|------------------------------------------------|
|-0-0-10/12---0-0-10/12---0-0-10/12---0-0-10/12--|

|------------------------------------|
|------------------------------------|
|------------------------------------|
|------------------------------------|
|------------------------------------|
|-7--8-8-8-8-8-8-777-7-8-8-8-8-8-8-8-|
     . . . . . .       . . . . . . . 




PRECHORUS- 
|------------------------------------------------|
|------------------------------------------------|
|------------------------------------------------|
|------------------------------------------------|
|------------------------------------------------|
|-0-0-0-0-3-3-3-3-0-0-0-0-3-3-3-3-7-8-8~--7-8-8~-|




CHORUS- 
|---------------------------------|---------------------------------|
|---------------------------------|---------------------------------|
|---------------------------------|---------------------------------|
|-------------------------5-3-2-3-|---------------------------------|
|---------------------------------|---------------------------------|
|-3-3-3-3-3-3-3-3-3-3-3-3---------|-0-0-0-0-0-0-0-0-0-0-0-0-0-0-0-0-|

|---------------------------------|---------------------------------|
|---------------------------------|---------------------------------|
|---------------------------------|---------------------------------|
|---------------------------------|---------------------------------|
|---------------------------------|---------------------------------|
|-8-8-8-8-8-8-8-8-8-8-8-8-8-8-8-8-|-3-3-3-3-3-3-3-3-2-2-2-2-2-2-2-2-|




BRIDGE-
|---------------------------------|---------------------------------|
|---------------------------------|---------------------------------|
|---------------------------------|---------------------------------|
|---------------------------------|---------------------------------|
|---------------------------------|---------------------------------|
|-3-3-3-3-3-3-3-3-3-3-3-3-3-3-3-3-|-0-0-0-0-0-0-0-0-0-0-0-0-0-0-0-0-|

|---------------------------------|---------------------------------|
|---------------------------------|---------------------------------|
|---------------------------------|---------------------------------|
|---------------------------------|---------------------------------|
|---------------------------------|---------------------------------|
|-8-8-8-8-8-8-8-8-8-8-8-8-8-8-8-8-|-3-3-3-3-3-3-3-3-2-2-2-2-2-2-2-2-|

|-------------------------------------------|
|-------------------------------------------|
|-------------------------------------------|
|-------------------------------------------|
|-------------------------------------------|
|-8--x-8---8--x-8---10--12--x-12---12--x-12-|
[ Tab from: http://www.guitartabs.cc/tabs/s/senses_fail/free_fall_without_a_parachute_btab.html ]
|-------------------------------------------|
|-------------------------------------------|
|-------------------------------------------|
|-------------------------------------------|
|-------------------------------------------|
|-8--x-8---8--x-8---10--12--x-12---12--x-12-|

|---------------------------------|---------------------------------|
|---------------------------------|---------------------------------|
|---------------------------------|---------------------------------|
|---------------------------------|---------------------------------|
|---------------------------------|---------------------------------|
|-3-3-3-3-3-3-3-3-3-3-3-3-3-3-3-3-|-0-0-0-0-0-0-0-0-3-3-3-3-3-3-3-3-|

|---------------------------------|---------------------------------|
|---------------------------------|---------------------------------|
|---------------------------------|---------------------------------|
|---------------------------------|---------------------------------|
|---------------------------------|---------------------------------|
|-8-8-8-8-8-8-8-8-8-8-8-8-8-8-8-8-|-3-3-3-3-3-3-3-3-2-2-2-2-2-2-2-2-|

|---------------------------------|---------------------------------|
|---------------------------------|---------------------------------|
|---------------------------------|---------------------------------|
|-------------------------5-5-3-2-|---------------------------------|
|---------------------------------|---------------------------------|
|-3-3-3-3-3-3-3-3-3-3-3-3---------|-0-0-0-0-0-0-0-0-3-3-3-3-3-3-3-3-|

|---------------------------------|---------------------------------|
|---------------------------------|---------------------------------|
|---------------------------------|---------------------------------|
|---------------------------------|---------------------------------|
|---------------------------------|---------------------------------|
|-8-8-8-8-8-8-8-8-8-8-8-8-8-8-8-8-|-3-3-3-3-3-3-3-3-2-2-2-2-2-2-2-2-|

|---------------------------------|---------------------------------|
|---------------------------------|---------------------------------|
|---------------------------------|---------------------------------|
|-------5-5-3-2-3-------5-5-3-2-3-|-----------3--3------------3---3-|
|---------------------------------|---------------------------------|
|-3-3-3-------------3-3-3---------|-0---x--0----------0--x-0--------|
                                              .               .
|---------------------------------|---------------------------------|
|---------------------------------|---------------------------------|
|---------------------------------|---------------------------------|
|---------------------------------|---------------------------------|
|---------------------------------|---------------------------------|
|-8-8-8-8-8-8-8-8-8-8-8-8-8-8-8-8-|-3-3-3-3-3-3-3-3-2-2-2-2-2-2-2-2-|




OUTRO-
|---------------------------------|---------------------------------|
|---------------------------------|---------------------------------|
|---------------------------------|---------------------------------|
|-------------------------5-3-2-3-|---------------------------------|
|---------------------------------|---------------------------------|
|-3-3-3-3-3-3-3-3-3-3-3-3---------|-0-0-0-0-0-0-0-0-0-0-0-0-0-0-0-0-|

|---------------------------------|---------------------------------|
|---------------------------------|---------------------------------|
|---------------------------------|---------------------------------|
|---------------------------------|---------------------------------|
|---------------------------------|---------------------------------|
|-8-8-8-8-8-8-8-8-8-8-8-8-8-8-8-8-|-3-3-3-3-3-3-3-3-2-2-2-2-2-2-2-2-|

SONG STRUCTURE
intro-2x
verse-2x
prechorus-2x
chorus-1x
verse-2x
chorus-2x
bridge-1x
chorus-1x
outro-1x


symbols
x=muted(dead) note 
/=slide
.=palm muted or staccato note
Comments