Senses Fail - Dreaming A Reality Chords & Tabs

 

Dreaming A Reality Chords & Tabs

Senses Fail Chords & Tabs

Version: 2 Type: Tab 0 ratings
1 star 2 stars 3 stars 4 stars 5 stars
comments

Dreaming A Reality Tab

Tabbed by: Adam

I wanna let all you guys know that I just wrote down the tabs and you guys
Just figure out the strumming on your own. It's simple. 

Drop your D tuning...

e|--------------------------------------------------------------------|
B|--------------------------------------------------------------------|
G|--------------------------------------------------------------------|
D|------7-----6-------------------------7-----6-------------------6---|
A|----4-----4-----4-7-----7-----7-----4-----4-----4-7-----7-----7-----|
E|--4-----4-----4-----4-4---4-4---4-4-----4-----4-----4-4---4-4-----4-|

e|--------------------------------------------------------------------|
B|--------------------------------------------------------------------|
G|--------------------------------------------------------------------|
D|------7-----6-------------------------7-----6-----------------------|
A|----0-----0-----0-7----7-----7------0-----0-----0-7-----7-----7-----|
E|--0-----0-----0----0-0---0-0---0--0-----0-----0-----0-0---0-0---0---| after you play
                                                                        this go to the
                                                                        top & play again
Guitar 2 Intro
e|--------------------------------------|
B|--------------------------------------|
G|--------------------------------------|
D|---4-4------4-4------0-0------0-0-----|
A|---4-4------4-4------0-0------0-0-----|
E|---4-4------4-4------0-0------0-0-----|
  PM....     PM....   PM....  PM....
 Play this 2nd intro. Find out when to play it. It's simple...

Guitar 2
e|-------------------------------------|
B|-------------------------------------|
G|-------------------------------------|
D|--4---------------------0------------|
A|--4---------------------0------------|
E|--4---------------------0------------|
  

  Folks, with guitar one, I just turn my distortion on and play the intro again.



Guitar 1 Verse   AWESOME PART  Play twice
e|--------------------------------------|
B|--------------------------------------|
G|--------------------------------------|
D|--7--6-----7--6-----7--6--2--7--6--2--|
A|--4--4--7--4--4--7--0--0--0--0--0--0--|
E|--4--4--4--4--4--4--0--0--0--0--0--0--|

Guitar 2 Verse
e|-----------------------|
B|-----------------------|< 
G|-----------------------|    Play Twice
D|--4-----------------0--|<
A|--4-----------------0--|
E|--4-----------------0--|
[ Tab from: http://www.guitartabs.cc/tabs/s/senses_fail/dreaming_a_reality_tab_ver_2.html ]
e|-------------------------------------|
B|-------------------------------------|
G|-------------------------------------|
D|--4---------------------0------------|Play twice 
A|--4---------------------0------------|
E|--4---------------------0------------|
  PM.................................

e|----------------------------------------------------|
B|----------------------------------------------------|
G|----------------------------------------------------|
D|--4-4-x-x-x-4-4-4-x-x-x-x-4-4-x-x-x-4-4-4-4-4-4-4---|
A|--4-4-x-x-x-4-4-4-x-x-x-x-4-4-x-x-x-4-4-4-4-4-4-4---|
E|--4-4-x-x-x-4-4-4-x-x-x-x-4-4-x-x-x-4-4-4-4-4-4-4---|

e|----------------------------------------------------|
B|----------------------------------------------------|
G|----------------------------------------------------|
D|--0-0-x-x-x-0-0-0-x-x-x-x-0-0-x-x-x-0-0-0-0-0-0-0---| 
A|--0-0-x-x-x-0-0-0-x-x-x-x-0-0-x-x-x-0-0-0-0-0-0-0---|
E|--0-0-x-x-x-0-0-0-x-x-x-x-0-0-x-x-x-0-0-0-0-0-0-0---| 

e|---------------| 
B|---------------|
G|---------------|Guitar 2
D|----6h7h6------|
A|---------7-----|
E|---------------|

e|---------------|
B|---9h14h9------|
G|---------9-----|Guitar 1
D|---------------|
A|---------------|
E|---------------|

Chorus Again, Figure the strumming. It's simple..
   Play 2X
e|------------------------------------------------------|
B|------------------------------------------------------|
G|--9-------------7-9-7-------------4----6--7-4---6-----|
D|--x-------------x-x-x-7-----------x----x--x-x---x--7--|
A|--7-------------5-7-5-7-----------2----4--5-2---4--7--|
E|----------------------7----------------------------7--|

Go back and play Verse One once and just play the rest of it.
Then at the end of the chorus it goes like this...

e|-----------------|
B|-----------------|
G|--------7--------|  
D|---7~-----7-6----|
A|---7~------------|
E|---7~------------|

After that play the chorus and then go with this..

e|--------------------|
B|--------------------|
G|---------9-7-6------|
D|--7~----------------|
A|--7~----------------|
E|--7~----------------|

Finally, with this part listen for the strumming. 
It goes back in forth between palm muting and not.
e|---------------------------------------|
B|---------------------------------------|
G|---------------------------------------|
D|--7-----0------4----0------------------|
A|--7-----0------4----0------------------|
E|--7-----0------4----0------------------|

I know this is correct, but I didn't have the time to put in the 
Strumming. If you listen, you'll get it. Also, I didn't put in both guitar
parts for the whole song, I wrote these by ear. I'm only 14 so bare with me.
Questions or comments can be sent to kean_25_02@yahoo.com.
Comments