Senses Fail - Buried A Lie Chords & Tabs

 

Buried A Lie Chords & Tabs

Senses Fail Chords & Tabs

Version: 4 Type: Tab 0 ratings
1 star 2 stars 3 stars 4 stars 5 stars
comments

Buried A Lie Tab

   
Senses Fail
Let It Enfold You
Buried A Lie
Tabbed By: DarkStar11589 (darkstar11589@msn.com)

Drop D Tuning (D A D G B E)

Intro 1 (0:00-0:13)
Guitar 1 (acoustic)
|------------------------------------------|
|------------------------------------------|
|-----2-------------------------2----------|
|---0-------4-----2-----0----0------4---2~-|
|-4------------4----------4-----------4----|
|------------------------------------------|

Guitar 2
|----------------------------------------|
|------------------------------2--2-2-2~-|
|-4--4-4-X-7--7-7-7---7--7-7-X-2--2-2-2~-|
|-4--4-4-X-7--7-7-7---7--7-7-X-2--2-2-2~-|  
|-2--2-2-X-5--5-5-5---5--5-5-X-0--0-0-0~-|
|----------5--5-5-5----------------------|

Intro pt.2 (0:14-0:26)
Guitar 1 (distortion)
|----------------------------------------------------------------|
|----------------------------------------------------------------|
|-666-\-777-/-141414141414-\-1111111111-\-12-/-9--9-9-\-1111-\12-|
|-xxx-\-xxx-/--x-x-x-x-x-x-\--x-x-x-x-x-\--x-/-x--x-x-\--x-x---x-| 2x
|-444-\-555-/-121212121212-\--9-9-9-9-9-\-10-/-7--7-7-\--9-9-\10-|
|----------------------------------------------------------------|

Guitar 2
|-------------------------------------|
|-------------------------------------|
|-11-1111--7--7-7-7--7--7-7--2--2-2-2-|
|--9--9-9--7--7-7-7--7--7-7--2--2-2-2-| 2x
|--9--9-9--5--5-5-5--0--0-0--0--0-0-0-|
|--9--9-9--5--5-5-5--0--0-0-----------|

Pre Verse (0:26-0:32)
Both Guitars
|------------------------------------------|
|------------------------------------------|
|-777-777-777-777--777777-777-777-777-77-7-|
|-777-777-777-777--777777-777-777-777-77-7-|  
|-555-000-555-000--555555-000-555-000-55-5-|
|-555-000-555-000--555555-000-555-000-55-5-|

Verse 1, pt. 1
Both Guitars
"Rest in peace girl..." (0:33-0:52)
|------------|
|------------|
|------------|
|-0--4--9--7-| 2x
|-0--5--9--7-|
|-0--4--9--5-|
PM*  *  *  *

Verse 1, pt. 2
Guitar 1 (Guitar 2 remains playing pt. 1)
"I went to your grave..." (0:42-0:48)
|---------------------------------------------------------------------|
|---------10-10-7-7-7-7-7-7-----------------10-10-7-7-7-7-7-7-8-8-8-8-|
|-6-6-6-7-------------------9-9-9-9-6-6-6-7---------------------------|
|---------------------------------------------------------------------|
|---------------------------------------------------------------------|
|---------------------------------------------------------------------|
PM* * * *  *  * * * * * * * * * * * * * * *  *  * * * * * * * * * * *

"Brought it to my house..." (0:49-0:52)
|---------------------------------------------------------------------|
|---------10-10-7-7-7-7-7-7-------------------------------------------|
|-6-6-6-7-------------------9-9-9-9-6-6-6-7-7-7-7-7-7-7-7-7-7-7-7-7-7-|
|---------------------------------------------------------------------|
|---------------------------------------------------------------------|
|---------------------------------------------------------------------|
PM* * * *  *  * * * * * * * * * * *

Chorus
Guitar 1
"So, Lets play Doctor, Babe!..." (0:55-1:03)
|-5-5-5-----------------|
|-----7-7-7-7-----7-----|
|--------------7-----7--|
|-----------------------| 3x
|-----------------------|
|-----------------------|

"You could help solve this case..." (1:04-1:06)
|-5-5-5-------------------|
|-----7-7-7-7--7-----7----|
|-----------------7-----7-|
|-------------------------|
|-------------------------|
|-------------------------|

Guitar 2
"So, Lets play Doctor, Babe!..." (0:55-1:06)
|-------------------------------------|
|-------------------------------------|
|-11-1111--7--7-7-7--7--7-7--2--2-2-2-|
|--9--9-9--7--7-7-7--7--7-7--2--2-2-2-| 4x
|--9--9-9--5--5-5-5--0--0-0--0--0-0-0-|
|--9--9-9--5--5-5-5--0--0-0-----------|

Pre Verse
Both Guitars
"For Me!" (1:07-1:09)
|------------------------|
|------------------------|
|-777-777-777-777--777-7-|
|-777-777-777-777--777-7-|
|-555-000-555-000--555-0-|
|-555-000-555-000--555-0-|

Verse 2, pt. 1
Both Guitars
"I Headed Downtown..." (1:10-1:33)
|------------|
|------------|
|------------|
|-0--4--9--7-| 2x
|-0--5--9--7-|
|-0--4--9--5-|
PM*  *  *  *

Guitar 1 (Guitar 2 continues playing pt. 1)
"I went to your grave..." (1:21-1:27)
|---------------------------------------------------------------------|
|---------10-10-7-7-7-7-7-7-----------------10-10-7-7-7-7-7-7-8-8-8-8-|
|-6-6-6-7-------------------9-9-9-9-6-6-6-7---------------------------|
|---------------------------------------------------------------------|
|---------------------------------------------------------------------|
|---------------------------------------------------------------------|
PM* * * *  *  * * * * * * * * * * * * * * *  *  * * * * * * * * * * *

"Brought it to my house..." (1:27-1:33)
|---------------------------------------------------------------------|
|---------10-10-7-7-7-7-7-7-------------------------------------------|
|-6-6-6-7-------------------9-9-9-9-6-6-6-7-7-7-7-7-7-7-7-7-7-7-7-7-7-|
|---------------------------------------------------------------------|
|---------------------------------------------------------------------|
|---------------------------------------------------------------------|
PM* * * *  *  * * * * * * * * * * *                                    

Chorus
Guitar 1
"So, Lets play Doctor, Babe!..."(1:34-1:52)
|-5-5-5-----------------|
|-----7-7-7-7------7----|
|---------------7-----7-|
|-----------------------| 6x
|-----------------------|
|-----------------------|

"You could help solve this case..." (1:52-1:56)
|-5-5-5-------------------|
|-----7-7-7-7--7-----7----|
|-----------------7-----7-|
|-------------------------| 1x
|-------------------------|
|-------------------------|
[ Tab from: http://www.guitartabs.cc/tabs/s/senses_fail/buried_a_lie_tab_ver_4.html ]
Guitar 2
"So, Lets play Doctor, Babe!..." (1:34-1:56)
|-------------------------------------|
|-------------------------------------|
|-11-1111--7--7-7-7--7--7-7--2--2-2-2-|
|--9--9-9--7--7-7-7--7--7-7--2--2-2-2-| 7x
|--9--9-9--5--5-5-5--0--0-0--0--0-0-0-|
|--9--9-9--5--5-5-5--0--0-0-----------|

Post Chorus
Guitar 1
"away..away..." (1:57-2:02)
|-------------------------------------------------------------------|
|-------------------------------------------------------------------|
|-7-7-7-7-7-7-7-7-7-7-7-7-7-7-/-9-7-9-9-9-9-6-6-6-6-6-6-6-6-6-6-6-6-|
|-x-x-x-x-x-x-x-x-x-x-x-x-x-x-/-x-x-x-x-x-x-x-x-x-x-x-x-x-x-x-x-x-x-|
|-5-5-5-5-5-5-5-5-5-5-5-5-5-5-/-7-5-7-7-7-7-4-4-4-4-4-4-4-4-4-4-4-4-|
|-------------------------------------------------------------------|

Guitar 2
"away..away..." (1:57-2:02)
|-----------------------------------------------------------------|
|-----------------------------------------------------------------|
|-7-7-7-7-7-7-7-7-7-7-7-7-7-7-7-7-7-7-7-7-7-7-7-7-7-7-7-7/9-9-9-9-|
|-7-7-7-7-7-7-7-7-7-7-7-7-7-7-7-7-4-4-4-4-4-4-7-7-7-7-7-5/7-7-7-7-|
|-5-5-5-5-5-5-5-5-5-5-5-5-5-5-5-5-5-5-5-5-5-5-5-5-5-5-5-5/7-7-7-7-|
|-5-5-5-5-5-5-5-5-5-5-5-5-5-5-5-5-4-4-4-4-4-4-5-5-5-5-5-5/7-7-7-7-|

Bridge pt. 1
Both Guitar (light distortion)
"I'll catch the murderer..." (2:03-2:12)
|---------------------------------------------------------|
|---------------------------------------------------------|
|---------------------------------------------------------|
|-9-9-9-9-9-9\7-7-7-7-7-7-7-7-0-0-0-0-0-0-7-7-7-7-7-7-7-7-| 2x
|-9-9-9-9-9-9\5-5-5-5-5-5-5-5-0-0-0-0-0-0-7-7-7-7-7-7-7-7-|
|-9-9-9-9-9-9\5-5-5-5-5-5-5-5-0-0-0-0-0-0-7-7-7-7-7-7-7-7-|
PM* * * * * * * * * * * * * * * * * * * * * * * * * * * *

Piano (arranged for guitar)
"I'll get the evidence..."(2:08-2:12)
|-----------------------------------|
|-----10---7-------------10---7-----|
|-6h7--------6-9---7-6h7--------6-9-|
|-----------------------------------| 1x
|-----------------------------------|
|-----------------------------------|

Pre Verse
Both Guitars
(2:14-2:19)
|-----------------------------------------|
|-----------------------------------------|
|-777-777-777-777--777777-777-777-777-777-|
|-777-777-777-777--777777-777-777-777-777-|  
|-555-000-555-000--555555-000-555-000-555-|
|-555-000-555-000--555555-000-555-000-555-|

"your last day..." (2:19-2:26)
|------------------------------------------------------|
|------------------------------------------------------|
|-777-777-777-777-777777-777-77-7----------------------|
|-777-777-777-777-777777-777-77-7-00-00-00-00-00000000-|
|-555-000-555-000-555555-000-55-5-00-00-00-00-00000000-|
|-555-000-555-000-555555-000-55-5-00-00-00-00-00000000-|
PM			          .. .. .. .. ........

Outro Chorus
Guitar 1 pt.1
"So, Lets play Doctor, Babe!..." (2:26-2:37)
|----------------------------------------------------------------|
|----------------------------------------------------------------|
|-666-\-777-/-141414141414-\-1111111111-\-12-/-9--9-9-\-1111-\12-|
|-xxx-\-xxx-/--x-x-x-x-x-x-\--x-x-x-x-x-\--x-/-x--x-x-\--x-x---x-| 2x
|-444-\-555-/-121212121212-\--9-9-9-9-9-\-10-/-7--7-7-\--9-9-\10-|
|----------------------------------------------------------------|

Guitar 1 pt. 2
"We need a scalpel now..." (2:37-2:42)
|------------------------------------------|
|------------------------------------------|
|-77777777777777-/-111111111111-\-66666666-|
|-xxxxxxxxxxxxxx-/--x-x-x-x-x-x-\-xxxxxxxx-|
|-55555555555555-/--9-9-9-9-9-9-\-44444444-|
|------------------------------------------|

"We've got to hurry up..."(2:43-2:49)
|---------------------------------------------------------------|
|---------------------------------------------------------------|
|-7-7-7-7-7-7-7-7-7-7-7-7-7-7-/-1111111111-/-12-9-9-9-9-9-9-9-9-|
|-x-x-x-x-x-x-x-x-x-x-x-x-x-x-/--x-x-x-x-x-/--x-x-x-x-x-x-x-x-x-|
|-5-5-5-5-5-5-5-5-5-5-5-5-5-5-/--9-9-9-9-9-/-10-7-7-7-7-7-7-7-7-|
|---------------------------------------------------------------|

Guitar 2 pt.1
"So, Lets play Doctor, Babe!..." (2:26-2:37)
|-------------------------------------|
|-------------------------------------|
|-11-1111--7--7-7-7--7--7-7--2--2-2-2-|
|--9--9-9--7--7-7-7--7--7-7--2--2-2-2-| 2x
|--9--9-9--5--5-5-5--0--0-0--0--0-0-0-|
|--9--9-9--5--5-5-5--0--0-0-----------|

Guitar 2 pt. 2
"We need a scalpel now..." (2:37-2:49)
|---------------------------------------------------------|
|---------------------------------------------------------|
|-4-4-4-4-4-4-7-7-7-7-7-7-7-7-7-7-7-7-7-7-9-9-9-9-9-9-9-9-|
|-4-4-4-4-4-4-7-7-7-7-7-7-7-7-7-7-7-7-7-7-7-7-7-7-7-7-7-7-| 2x
|-2-2-2-2-2-2-5-5-5-5-5-5-5-5-0-0-0-0-0-0-7-7-7-7-7-7-7-7-|
|-------------5-5-5-5-5-5-5-5-0-0-0-0-0-0-7-7-7-7-7-7-7-7-|

Outro
Both Guitars
"away..away..." (2:50-3:14)
|-------------------------------------------|
|-------------------------------------------|
|-777-777-777-777-777777-777-777-777-777-7~-|
|-777-777-777-777-777777-777-777-777-777-7~-|
|-555-000-555-000-555555-000-555-000-555-0~-|
|-555-000-555-000-555555-000-555-000-555-0~-|


Lyrics:

(Verse 1)
Rest in peace girl, your death is such a shame
The paper said a bullet got in your way
But I smell foulplay, possible poisoning
I had to bring her in for questioning
I went to your grave, dug up your body
Brought it to my house, where you lay

(Chorus)
So let's play doctor babe
We'll operate today
Incisions must be made
You could help solve this case
For me...

(Verse 2)
I headed downtown, to share what I had found
It's not a suicide, it's a crime
I have a witness, it's clearly evident
There had to be someone else present
At the time of death, poisons in stomach
How could she pull it, if she's dead?

(Chorus)
So let's play doctor babe
We'll operate today
Incisions must be made
You could help solve this case
We need a scalpel now
Under white lights you lay
We've got to hurry up
Before the flesh decays
Away...away

(Bridge)
I'll catch the murderer
And send him away
I'll get the evidence
From your last day

Your last day...

(Outro Chorus)
So let's play doctor babe
We'll operate today
Incisions must be made
You could help solve this case
We need a scalpel now
Under white lights you lay
We've got to hurry up
Before the flesh decays

Away...away
Comments